Author Topic: Soundtrack to the rebellion  (Read 5155 times)

0 Members and 1 Guest are viewing this topic.

Offline Skvate

  • Jr. Member
  • **
  • Posts: 166
  • Karma: 13
  • Gender: Male
  • Mediocre
Soundtrack to the rebellion
« on: October 17, 2004, 11:22:45 pm »
So...anyone started on this one yet?
I have finished the opening riffs(from 1:06 to 1:46 or so).

Gtr I (E A D G B E) - 'Untitled'

  Q=120
 4/4
  Gtr I
  E E S E  E E S E  E E  S E  E S S S S S  S E E S E  E E S E  E E S E
|-------------------------------------------------------------------------|
|-------------------------------------------------------------------------|
|----------------------------/6-------------------------------------------|
|---6---6----6---6----6----6----9-8-------/6---6---6----6---6----6---6----|
|-6---9---/6---9--------/9----------9-6-9----6---9--------9--------9------|
|------------------/7--------------------------------/9-------/7----------|


   E S S E S S E E S E  E E S E  E E  S E  E S S S S S  S E E S E  E E S E  E E S E
|-------------------------------------------------------------------------------------|
|-------------------------------------------------------------------------------------|
|-----------------------------------------/6------------------------------------------|
|----------------6---6----6---6----6----6----9-8-------/6---6---6----6---6----6---6---|
|-/9-8-6-------6---9---/6---9--------/9----------9-6-9----6---9--------9--------9-----|
|--------9-8-9------------------/7--------------------------------/9-------/7---------|


                              PM------|         PM  PM    PM
   E S S E S S H S S W S  S S T T T T S E S S S S S S S S S E S S S S S E
|---------------------------------------------------------------------------|
|---------------------------------------------------------------------------|
|-----------------------------------------------------------4---------------|
|-------------------------------------------------6---4-6-----6-----4-6-----|
|-/9-8-6-------------6-6s16s6-----------7-6---------------------6-------6---|
|--------9-7-8-9-8-9----------4-4-4-4-4-----7-6-0---0-----0-------0---------|


  PM|   PM  PM         ~~ PM|   PM|   PM      PM
  S S S S S S S E E E  Q  S S S S S S S E S S S S S E
|--------------------------------------------------------|
|--------------------------------------------------------|
|-------------4-6-8s9S11----------------3----------------|
|-----6---6-------------------4---6-4-----4-----4-6------|
|---6-----------------------4---------------4-------4----|
|-4-----4---4-------------2-----2-----2-------2----------|

« Last Edit: October 27, 2004, 07:56:30 pm by Skvate »
Lifeless I sail through these ironic fashions, dressed in the flesh of the jokers passions. On the uttermost brink of madness I stroll, and the rise of insanity as my most precious goal. Tricking the trail of my long lost obscurity, I gather me inside the artifice of eternity....

Offline Fallout

  • Machinae Prime
  • *****
  • Posts: 6430
  • Karma: 71
  • Gender: Male

Offline Tritox

  • Jr. Member
  • **
  • Posts: 206
  • Karma: 14
  • Gender: Male
  • Nuuh
Re:Soundtrack to the rebellion
« Reply #2 on: October 18, 2004, 11:51:19 am »
I tabbed that main riff few days ago and I was planning I'd make a gp-tab from the song but that riff in verse is hard. At least to me. :)

Your tab looks same as mine, except I play it lower in the neck.

Offline Skvate

  • Jr. Member
  • **
  • Posts: 166
  • Karma: 13
  • Gender: Male
  • Mediocre
Re:Soundtrack to the rebellion
« Reply #3 on: October 18, 2004, 02:59:44 pm »
Quote
put it in TT.

TT is already on.

Will get more when i get home.
« Last Edit: October 21, 2004, 05:56:44 pm by Skvate »
Lifeless I sail through these ironic fashions, dressed in the flesh of the jokers passions. On the uttermost brink of madness I stroll, and the rise of insanity as my most precious goal. Tricking the trail of my long lost obscurity, I gather me inside the artifice of eternity....

Offline Tritox

  • Jr. Member
  • **
  • Posts: 206
  • Karma: 14
  • Gender: Male
  • Nuuh
Re:Soundtrack to the rebellion
« Reply #4 on: October 18, 2004, 06:12:21 pm »
Will get more when i get home.

Sweet. I already started a gp-tab and this also a pt-tab. :D

Offline Tritox

  • Jr. Member
  • **
  • Posts: 206
  • Karma: 14
  • Gender: Male
  • Nuuh
Re:Soundtrack to the rebellion
« Reply #5 on: October 18, 2004, 06:48:06 pm »
Here's the Pre-Chorus which starts after 2:00:


   we are ...
e|------------------|-----------------|-----------------|------------------
B|------------------|-----------------|-----------------|------------------
G|--2-----2-----2---|-2-----2-----2---|-----------------|------------------
D|--2-----2-----2---|-2-----2-----2---|-4-----4-----4---|-4-----4-----4----
A|--0-0-0-0-0-0-0-0-|-0-0-0-0-0-0-0-0-|-4-----4-----4---|-4-----4-----4----
E|------------------|-----------------|-2-2-2-2-2-2-2-2-|-2-2-2-2-2-2-2-2--


   we stand ...
e|------------------|-----------------|-----------------|------------------
B|------------------|-----------------|-----------------|------------------
G|--2-----2-----2---|-2-----2-----2---|-6-6-6-6-6-6-6-6-|-6-6-6-6-6-6-6-6--
D|--2-----2-----2---|-2-----2-----2---|-6-6-6-6-6-6-6-6-|-6-6-6-6-6-6-6-6--
A|--0-0-0-0-0-0-0-0-|-0-0-0-0-0-0-0-0-|-4-4-4-4-4-4-4-4-|-4-4-4-4-4-4-4-4--
E|------------------|-----------------|-----------------|------------------


Since the TT didn't show those palm-mutes right: all those bass notes are to played as PM.
I must really suck but I couldn't figure out what chord(s) is played under the "Under the blackened sky"  :o

Offline Skvate

  • Jr. Member
  • **
  • Posts: 166
  • Karma: 13
  • Gender: Male
  • Mediocre
Re:Soundtrack to the rebellion
« Reply #6 on: October 19, 2004, 11:30:46 pm »
i have to delay my tabbing...have a lot of other stuff to do right now.
Lifeless I sail through these ironic fashions, dressed in the flesh of the jokers passions. On the uttermost brink of madness I stroll, and the rise of insanity as my most precious goal. Tricking the trail of my long lost obscurity, I gather me inside the artifice of eternity....

Offline Tritox

  • Jr. Member
  • **
  • Posts: 206
  • Karma: 14
  • Gender: Male
  • Nuuh
Re:Soundtrack to the rebellion
« Reply #7 on: October 20, 2004, 03:57:54 pm »
i have to delay my tabbing...have a lot of other stuff to do right now.

Hehe. It's ok. So do I. :)

MDX

  • Guest
Re:Soundtrack to the rebellion
« Reply #8 on: October 23, 2004, 01:39:35 am »
once ure down with that see about tabbing "soundtrack to the peacan pie" .. its a tough one.. but im sure you guys can handle it ... mwahahaaa

Offline Skvate

  • Jr. Member
  • **
  • Posts: 166
  • Karma: 13
  • Gender: Male
  • Mediocre
Re:Soundtrack to the rebellion
« Reply #9 on: October 27, 2004, 07:59:12 pm »
added a couple of more riffs... about 6 seconds worth of playing :P

Question for Robert or some other band member(if they read these threads):
Whats the tuning on this song?
Some times it seems like you may have tuned your guitars down one or two steps.
Lifeless I sail through these ironic fashions, dressed in the flesh of the jokers passions. On the uttermost brink of madness I stroll, and the rise of insanity as my most precious goal. Tricking the trail of my long lost obscurity, I gather me inside the artifice of eternity....

Offline Tritox

  • Jr. Member
  • **
  • Posts: 206
  • Karma: 14
  • Gender: Male
  • Nuuh
Re:Soundtrack to the rebellion
« Reply #10 on: October 27, 2004, 09:12:42 pm »
added a couple of more riffs... about 6 seconds worth of playing :P

Question for Robert or some other band member(if they read these threads):
Whats the tuning on this song?
Some times it seems like you may have tuned your guitars down one or two steps.

As far I know, Robert currently uses B-tuning and Jonne E-tuning. But I'm not sure if Robert used B in SttR...

edit: spelling error

edit 2: Ok, I asked from Robert, SttR was recorded with B tuning, but it can be played with E. Except that you can't play the heaviest chords "right" with E :/
« Last Edit: October 27, 2004, 10:07:48 pm by Tritox »

Offline Sproof

  • Newbie
  • *
  • Posts: 65
  • Karma: 9
  • Gender: Male
Re:Soundtrack to the rebellion
« Reply #11 on: October 28, 2004, 11:05:15 am »
Ummmm i could TAB 90% of the song if you want... i play it on guitar all the time

 ;D
and tht first TAB puts it out much harder than it actually is
« Last Edit: October 28, 2004, 11:11:37 am by Sproof »

Offline Sproof

  • Newbie
  • *
  • Posts: 65
  • Karma: 9
  • Gender: Male
Re:Soundtrack to the rebellion
« Reply #12 on: October 28, 2004, 11:16:52 am »
Keep an eye out for 'Soundtrack to the Rebellion' on the {MaSu Guitar TABs} Thread

Offline Tritox

  • Jr. Member
  • **
  • Posts: 206
  • Karma: 14
  • Gender: Male
  • Nuuh
Re:Soundtrack to the rebellion
« Reply #13 on: October 28, 2004, 12:26:26 pm »
Ummmm i could TAB 90% of the song if you want... i play it on guitar all the time

 ;D
and tht first TAB puts it out much harder than it actually is

You handsome bastard! And why didn't you tell this earlier?  ;D

Offline Sproof

  • Newbie
  • *
  • Posts: 65
  • Karma: 9
  • Gender: Male
Re:Soundtrack to the rebellion
« Reply #14 on: October 28, 2004, 01:38:49 pm »
saving it just for you  ;)