The Official Machinae Supremacy Forum

The Band => Tabs => Topic started by: Blue Devil on January 18, 2008, 02:15:22 am

Title: Edge and Pearl Tab
Post by: Blue Devil on January 18, 2008, 02:15:22 am
Sorry blue devil.


I failed to pick up on another thread that granted you to post this tab, post away! I didn't mean to intrude, foolishly protecting our good man refic and didn't see that dezo gave the green light on this one. Work away.


EDITED BY MDX.
Title: Re: Edge and Pearl Tab
Post by: Lysix on January 18, 2008, 01:04:15 pm
damn you mdx! wheres the link gone ]:
Title: Re: Edge and Pearl Tab
Post by: Blue Devil on January 18, 2008, 05:57:18 pm
That's quite alright. So once again, here's the link.

http://rapidshare.com/files/84786666/pearl.gp4.html
Title: Re: Edge and Pearl Tab
Post by: Bocom on January 19, 2008, 10:57:22 pm
Damnit MDX, since Edge and Pearl is released, these things are allowed. >:D

Nevermind! ^_^
Title: Re: Edge and Pearl Tab
Post by: Smogelore on January 20, 2008, 06:49:01 pm
i once again demand for bass tabs on this one!  >:D
Title: Re: Edge and Pearl Tab
Post by: Jack Lupino on January 23, 2008, 05:00:47 am
i once again demand for bass tabs on this one!  >:D
Once again? Didn't you learn from the last ones
Title: Re: Edge and Pearl Tab
Post by: Smogelore on January 23, 2008, 07:50:50 am
i once again demand for bass tabs on this one!  >:D
Once again? Didn't you learn from the last ones
noooo...?
im a slow learner :P
Title: Re: Edge and Pearl Tab
Post by: dezo on January 23, 2008, 01:04:29 pm
i once again demand for bass tabs on this one!  >:D
bdga
bdf(or f# for us scandinavians)g
do you really need a tab for that?
Just listen to the drums and play after them.
Title: Re: Edge and Pearl Tab
Post by: Bocom on January 23, 2008, 07:41:00 pm
i once again demand for bass tabs on this one!  >:D
bdga
bdf(or f# for us scandinavians)g
do you really need a tab for that?
Just listen to the drums and play after them.

4 strings? Isn't this a 5 stringed song? :D
Title: Re: Edge and Pearl Tab
Post by: dezo on January 23, 2008, 08:17:25 pm
4 strings? Isn't this a 5 stringed song? :D
B is the fifth.
and of 5 possible strings you should use 3 to get the right tone.
Title: Re: Edge and Pearl Tab
Post by: Bocom on January 23, 2008, 08:27:43 pm
4 strings? Isn't this a 5 stringed song? :D
B is the fifth.
and of 5 possible strings you should use 3 to get the right tone.


How would that even translate to a 4 stringed bass? ;D
Title: Re: Edge and Pearl Tab
Post by: Smogelore on January 24, 2008, 08:44:56 am
i once again demand for bass tabs on this one!  >:D
bdga
bdf(or f# for us scandinavians)g
do you really need a tab for that?
Just listen to the drums and play after them.
beware! a stoopid question: so are those the tunings or the notes to play?

gddmnit im not a fscking leet musician like you guys... im just a guy who plays bass and loves it  ^-^
Title: Re: Edge and Pearl Tab
Post by: LymphoCite_T on August 07, 2008, 12:49:20 pm
     W                   W                 
G||-------------------|-------------------|
D||-------------------|-------------------|
A||--2----------------|--5----------------|
E||-------------------|-------------------|
B||-------------------|-------------------|


  W                   W                 
-------------------|--2----------------|
--5----------------|-------------------|
-------------------|-------------------|
-------------------|-------------------|
-------------------|-------------------|


  W                   W                 
-------------------|-------------------|
-------------------|-------------------|
--2----------------|--5----------------|
-------------------|-------------------|
-------------------|-------------------|


  W                   W                 
-------------------|-------------------|
--5----------------|-------------------|
-------------------|-------------------|
-------------------|--5----------------|
-------------------|-------------------|


  W                   W                 
-------------------|-------------------|
-------------------|-------------------|
--2----------------|--5----------------|
-------------------|-------------------|
-------------------|-------------------|


  W                   W                 
-------------------|--2----------------|
--5----------------|-------------------|
-------------------|-------------------|
-------------------|-------------------|
-------------------|-------------------|


  W                   W                 
-------------------|-------------------|
-------------------|-------------------|
--2----------------|--5----------------|
-------------------|-------------------|
-------------------|-------------------|


  W                   W                                 
-------------------|-------------------|
--5----------------|-------------------|
-------------------|-------------------|
-------------------|--5----------------|
-------------------|-------------------|

Duration Legend
---------------
W - whole

(i think so, maybe i'm wrong)
(made myself, without basing on dezo's post  ;D)