The Official Machinae Supremacy Forum

Forum Related => Salvaged Messages => Topic started by: lindarthebard on December 03, 2003, 06:59:15 am

Title: Neato Keyboard riff from Follower
Post by: lindarthebard on December 03, 2003, 06:59:15 am
160 BPM

Arranged for guitar.


E||---------------------17----|--17--15------7--------|
B||---13----13--12------------|-----------------------|
G||*--------------------14----|--14--12------4--------|
D||*--10----10--9-------------|-----------------------|
A||---------------------------|-----------------------|
E||---------------------------|-----------------------|


                                                   
--------------------17----|--17--15--------------||
--13----13--12------------|----------------------||
--------------------14----|--14--12--------------||
--10----10--9-------------|----------------------||
--------------------------|----------------------||
--------------------------|----------------------||


I played it at the same time as the song itself, and it sounds matched, and the correct BPM. I don't know if that's the right octave...

I'll work out the synth bass part for the same beginning riff, and if anyone has the chords for the actual song, could somebody post those up?