The Official Machinae Supremacy Forum

The Band => Tabs => Requests => Topic started by: cake on October 25, 2006, 08:45:14 am

Title: legion of stoopid
Post by: cake on October 25, 2006, 08:45:14 am
go!
Title: Re: legion of stoopid
Post by: Blue Devil on October 28, 2006, 06:54:49 am
If I could actually tune my guitar to C, I would totally do it. Alas, I fear too much that every string would break.
Title: Re: legion of stoopid
Post by: Jack Lupino on October 31, 2006, 03:29:44 am
Dumbass, C is DOWN
Title: Re: legion of stoopid
Post by: Blue Devil on October 31, 2006, 05:17:21 am
Dumbass, C is DOWN

I'm well aware of that, but it's when I go to tune it back into Standard Tuning that I'm afraid at least 3 strings will break.
Title: Re: legion of stoopid
Post by: Fallout on October 31, 2006, 03:06:13 pm
So what, buy new ones.
Title: Re: legion of stoopid
Post by: cake on November 02, 2006, 04:22:16 am
hay i dont care about your strings!
Title: Re: legion of stoopid
Post by: Blue Devil on November 02, 2006, 04:30:32 am
hay i dont care about your strings!

then i dont care about your frosting!
Title: Re: legion of stoopid
Post by: greasemonkey on November 02, 2006, 12:16:35 pm
your strings shouldn't break....i tuned my crappy old acoustic nylon to C and it was fine. A bit of buzzing, but fine.
Title: Re: legion of stoopid
Post by: ArcaneLegacy on December 01, 2006, 10:26:53 pm
Indeed, I am attempting to tab this at the moment. I've tuned down to C and no strings broken but I can't get a tab I'm completely happy with yet.
Title: Re: legion of stoopid
Post by: ArcaneLegacy on December 02, 2006, 12:14:36 pm
Well, the way I see it, only the bottom E needs to go down to C but I may be wrong. I have worked out all the lead parts but I am still struggling with the slightly odd sounding chords.
Title: Re: legion of stoopid
Post by: ArcaneLegacy on December 02, 2006, 05:45:03 pm
Well I think I'm closer now witrh the intro. As I said I have already tabbed all the lead parts but if someone can help me fiz the chords then please do. Here is what I have so far.
Tuning = C#,A,D,G,B,e
 |       |       |       |        |       |       |       |       
|--------------------------------|--------------------------------|
|--------------------------------|--------------------------------|
|--------------------------------|--------------------------------|
|--------------------------------|--------------------------------|
|2-3-4---7---3---7-------4-------|--------4-------3-------0-------|
|--------------------8-------7---|7---5-------5-------5-------5---|
 
 |       |       |       |        |       |       |       |       
|--------------------------------|--------------------------------|
|--------------------------------|--------------------------------|
|--------------------------------|----6---------------------------|
|--------------------------------|----6---------------------------|
|--------3-------3-------3---0---|----4---------------------------|
|5-6-7-------7-------7-----------|0---0---------------------------|
Title: Re: legion of stoopid
Post by: Jack Lupino on December 04, 2006, 01:27:25 am
Dumbass, C is DOWN

I'm well aware of that, but it's when I go to tune it back into Standard Tuning that I'm afraid at least 3 strings will break.
Ack, i did that too, and now my tremolo is being pulled up.
Title: Re: legion of stoopid
Post by: ArcaneLegacy on January 08, 2007, 08:00:10 pm
OK. How is this?


      E  E  Q     Q    Q        Q    Q    Q    Q       Q    Q    Q    Q     
D#||------------------------|-----------------------|----------------------|
A#||------------------------|-----------------------|----------------------|
F#||--5--6--7----10----6----|--10---------7---------|------------7---------|
C#||------------------------|--------8---------7----|--7----5---------5----|
G#||--3--4--5-----8----4----|---8---------5---------|------------5---------|
C#||------------------------|--------8---------7----|--7----5---------5----|


  Q    Q    Q    Q       E  E  Q    Q    Q       Q    Q    Q    Q     
----------------------|-----------------------|----------------------|
----------------------|-----------------------|----------------------|
--6-------------------|-------------6---------|--6---------6---------|
-------5----8----5----|--5--6--7---------5----|-------3---------3----|
--4-------------------|-------------4---------|--4---------4---------|
-------5----8----5----|--5--6--7---------5----|-------3---------3----|


  Q    Q    Q    Q     
----------------------||
----------------------||
----------------------||
--2----0--------------||
-------0--------------||
--2----0--------------||

Sounds about right to me. I'll post a GP5 file when I get the whole thing.
Title: Re: legion of stoopid
Post by: ArcaneLegacy on February 02, 2007, 08:34:13 pm
Here is a link to my current best effort at the intro. Please set the speed to 'x 2.00' before listening.

Click here to download the GP5 tab (http://files.filefront.com/legion_of_stoopidgp5/;6673315;;/fileinfo.html)
Title: Re: legion of stoopid
Post by: DevilhunterDante on August 19, 2012, 11:57:21 am
wtf !  ;D
I just post in old topics :D
does anybody have this for upload !!!???
tnx :D
the guitar pro file I meant !