The Official Machinae Supremacy Forum

The Band => Tabs => Topic started by: Blue Devil on August 01, 2006, 09:13:00 pm

Title: Insidious (First Solo)
Post by: Blue Devil on August 01, 2006, 09:13:00 pm
I've finally figured out how to play the first solo, but there's just one problem. The timing is so wierd, that I can't actually tab it out! I must work more furiously on it! Anyway, here's what I've been able to do: Record me playing it.
http://uploadfile.putfile.com/videos/21213550617.wav
Title: Re: Insidious (First Solo)
Post by: Blue Devil on August 01, 2006, 11:36:55 pm
Even more news! It's finally tabbed!
http://rapidshare.de/files/27837643/insidious.gp5.html

    Q    Q    S  S S S S S  S  S 
E||-----------------------9-11-12-|
B||---------------------9---------|
G||-----------------6-8-----------|
D||--------------/6---------------|
A||-------------------------------|
E||-------------------------------|


                               |--3--|  |--3--| 
   Q      E    S   S  E  S  S  S  S  S  S  S  S 
---------------------------12-10----------------|
--15b----15b--15b-15b-L--L-------12-------------|
------------------------------------12----14-12-|
---------------------------------------12-------|
------------------------------------------------|
------------------------------------------------|


   W      PM                           
   Q    S S   S  S  E    S  S S S S S 
--------------------------------------|
-------------------10b--------------7-|
--11----L-9--11-12------12-11-L---7---|
--------------------------------9-----|
--------------------------------------|
--------------------------------------|


           PM   PM    PM    PM             
  |-3-|                                     
  S S S E  S  S S   S S  S  S S  E    E     
--7-6-5------------------------------------|
--------8-----8----10----8------15b--15br--|
-----------9----9-----9-------9------------|
---------------------------10--------------|
-------------------------------------------|
-------------------------------------------|


                  PM PM PM PM PM PM PM PM PM PM PM PM PM PM PM PM   
   E   S  S  Q    T  T  T  T  T  T  T  T  T  T  T  T  T  T  T  T   
------------------------------------------------------------------||
---L--15-12-------------------------------------------------------||
------------14----------------------------------------------------||
------------------------------------------------------------------||
------------------------------------------------------------------||
------------------1--2--3--2--3--4--3--4--5--4--5--6--5--6--7--6--||

Title: Re: Insidious (First Solo)
Post by: Aphex on October 09, 2006, 11:12:31 am
re-upload tab please.
Title: Re: Insidious (First Solo)
Post by: Chimeray on December 02, 2006, 02:33:47 pm
Yeah please reupload
Title: Re: Insidious (First Solo)
Post by: Aphex on December 07, 2006, 07:15:04 pm
erm... dude? please :)
i have some damn problems with importing ASCII
:F I don't get it right, the tab is all red, skiping tones
etc. I'm newb bout gp :((
Title: Re: Insidious (First Solo)
Post by: Blue Devil on December 08, 2006, 12:44:25 am
Re-uploaded:
http://rapidshare.com/files/6530037/insidious.gp5.html
Title: Re: Insidious (First Solo)
Post by: Aphex on December 08, 2006, 06:19:03 pm
thanx (http://cro-gaming.com/forum/Smileys/Alpha/icon_ave.gif)