The Official Machinae Supremacy Forum

The Band => Tabs => Topic started by: H on July 13, 2005, 03:01:23 pm

Title: Ghost (beneath the surface) Tabs & powertab
Post by: H on July 13, 2005, 03:01:23 pm
This is still only just a work in progress, but I am posting it here for you all to check out anyway.

Machinae Supremacy - "Ghost" (http://www.geocities.com/sykodx469/MachinaeSupremacy_Ghost.ptb)

Hopefully that sounds accurate. When I am not falling asleep at the keyboard, I will:

1) tab out the rest of the rhythm parts
2) start working on picking apart the solos to tab.
Title: Re: Ghost (beneath the surface) powertab
Post by: Jack Lupino on July 13, 2005, 10:29:09 pm
nicey
Title: Re: Ghost (beneath the surface) powertab
Post by: H on July 14, 2005, 12:45:18 am
Thanky :)

Edit: Updated. Added more of the rhythm, & added the beginning solo.

Edit 2: Whoops. There was a wrong note in the beginning solo that I missed o_o. It's fixed now.
Title: Re: Ghost (beneath the surface) powertab
Post by: Jack Lupino on July 16, 2005, 12:01:26 am
lol, even tho, its the greatest !!

tabby?

i want the first solo..

how did you do it, right hand tapping ?
Title: Re: Ghost (beneath the surface) powertab
Post by: H on July 16, 2005, 12:59:15 am
Nope, no right hand tapping ^_^;;;

The hardest thing about the intro solo is the speed. I had a difficult time at the beginning doing the hammer on/pull offs, but after a little practice (and lots of serious right hand picking) I finally became comortable with it :)

Here, for those of you without powertab ;D

Bpm=200
|
Intro Riff
|
    Palm Mute-----------------------------------------------------------|
|-----------------|-----------------|-----------------|-----------------|
|-----------------|-----------------|-----------------|-----------------|
|-----------------|-----------------|-----------------|-----------------|
|-2-2-2-2-2-2-2-2-|-2-2-2-2-2-2-2-2-|-2-2-2-2-2-2-2-2-|-2-2-2-2-2-2-2-2-|
|-2-2-2-2-2-2-2-2-|-2-2-2-2-2-2-2-2-|-2-2-2-2-2-2-2-2-|-2-2-2-2-2-2-2-2-|
|-0-0-0-0-0-0-0-0-|-0-0-0-0-0-0-0-0-|-0-0-0-0-0-0-0-0-|-0-0-0-0-0-0-0-0-|
|
|
|
Keyboard (transcribed for guitar)
|
|-0-7-0-10-7-0-10-12-|-0-7-0-10-7-0-3-5-|-0-7-0-10-7-0-10-12-|-0-3-0-2-0---2-0-|
|--------------------|------------------|--------------------|-----------3-----|
|--------------------|------------------|--------------------|-----------------|
|--------------------|------------------|--------------------|-----------------|
|--------------------|------------------|--------------------|-----------------|
|--------------------|------------------|--------------------|-----------------|
|
|
Clean Guitar
|
||--------------|-------------|-------------|--------------|
||o-------0-----|-------0-----|-------0-----|-------0------|
||-----0--------|----0--------|----0--------|----0---------|
||-----------4--|----------4--|----------4--|----------4---|
||o-7-----------|-7-----------|-7-----------|-7------------|
||--------------|-------------|-------------|--------------|
|
|-------------|-------------|-------------|--------------||
|-------0-----|-------0-----|-------0-----|-------0-----o||
|-------------|-------------|-------------|--------------||
|----4-----4--|----4-----4--|----4-----4--|----4-----4---||
|-2-----------|-2-----------|-2-----------|-2-----------o||
|-------------|-------------|-------------|--------------|| Repeat 2x
|
|
|-------------|-------------|-------------|-------------|
|-------0-----|-------0-----|-------0-----|-------0-----|
|-------------|-------------|-------------|-------------|
|----2-----2--|----2-----2--|----2-----2--|----2-----2--|
|-3-----------|-3-----------|-3-----------|-3-----------|
|-------------|-------------|-------------|-------------|
|
|
|-------------|-------------|-------------|-------------|
|-------0-----|-------0-----|-------0-----|-------0-----|
|-------------|-------------|-------------|-------------|
|----4-----4--|----4-----4--|----4-----4--|----4-----4--|
|-5-----------|-5-----------|-5-----------|-5-----------|
|-------------|-------------|-------------|-------------|
|
|
|-------------|-------------|-------------|-------------|
|-------0-----|-------0-----|-------0-----|-------0-----|
|-------------|-------------|-------------|-------------|
|----2-----2--|----2-----2--|----2-----2--|----2-----2--|
|-3-----------|-3-----------|-3-----------|-3-----------|
|-------------|-------------|-------------|-------------|
|
|
|-------------|-------------|-------------|-------------|
|-------0-----|-------0-----|-------0-----|-------0-----|
|-------------|-------------|-------------|-------------|
|----4-----4--|----4-----4--|----4-----4--|----4-----4--|
|-5-----------|-5-----------|-6-----------|-6-----------|
|-------------|-------------|-------------|-------------|
|
|
|-------------|-------------|-------------|-------------|
|-------0-----|-------0-----|-------0-----|-------0-----|
|----0--------|----0--------|----0--------|----0--------|
|----------4--|----------4--|----------4--|----------4--|
|-7-----------|-7-----------|-7-----------|-7-----------|
|-------------|-------------|-------------|-------------|
Title: Re: Ghost (beneath the surface) powertab
Post by: H on July 16, 2005, 01:34:46 am
Here's some more :)

Heavy Riff (No solo)
|
|---------------|---------------|---------------|---------------|
|---------------|---------------|---------------|---------------|
|---------------|---------------|---------------|---------------|
|---------------|---------------|---------------|---------------|
|-7--7---x-5---x|-3--3---x-5---x|-7--7---x-5---x|-3--3---x-5---x|
|-7--7---x-5---x|-3--3---x-5---x|-7--7---x-5---x|-3--3---x-5---x|
|
|
|----------------|--------------|---------------|---------------|
|----------------|--------------|---------------|---------------|
|----------------|--------------|---------------|---------------|
|----------------|--------------|---------------|---------------|
|-7--7---x-5----x|-3--3---x-5--x|-7--7---x-7---7|-7-------------|
|-7--7---x-5----x|-3--3---x-5--x|-7--7---x-7---7|-7-------------|
|
|
Heavy Riff (played under solo)
|
|---------------|---------------|---------------|---------------|
|---------------|---------------|---------------|---------------|
|---------------|---------------|---------------|---------------|
|---------------|---------------|---------------|---------------|
|-7--7---x-5---x|-3--3---x-5---x|-7--7---x-5---x|-3--3---x-5---x|
|-7--7---x-5---x|-3--3---x-5---x|-7--7---x-5---x|-3--3---x-5---x|
|
|                                                        ^ v ^ v
|---------------|---------------|---------------|--------x-x-x-x|
|---------------|---------------|---------------|--------x-x-x-x|
|---------------|---------------|---------------|--------x-x-x-x|
|---------------|---------------|---------------|--------x-x-x-x|
|-7--7---x-5---x|-3--3---x-5---x|-7--7---x-5---x|-7--7---x-x-x-x|
|-7--7---x-5---x|-3--3---x-5---x|-7--7---x-5---x|-7--7---x-x-x-x|
|
|
Beginning Solo
|
|-------------------------------------------------|-------------------------------------------------|
|-15-12-15-12-15-12-15-12-15-12-15-12-15-12-15-12-|-15-12-15-12-15-12-15-12-15-12-15-12-15-12-15-12-|
|-------------------------------------------------|-------------------------------------------------|
|-------------------------------------------------|-------------------------------------------------|
|-------------------------------------------------|-------------------------------------------------|
|-------------------------------------------------|-------------------------------------------------|
|
|
|-------------------------------------------------|-------------------------------------------------|
|-17-15-17-15-17-15-17-15-17-15-17-15-17-15-17-15-|-19-17-19-17-19-17-19-17-19-17-19-17-19-17-19-17-|
|-------------------------------------------------|-------------------------------------------------|
|-------------------------------------------------|-------------------------------------------------|
|-------------------------------------------------|-------------------------------------------------|
|-------------------------------------------------|-------------------------------------------------|
|
| Tremolo picked throughout
|-17-----15---14---|-14-----12------|-12------------|-12-----12-----|
|-17-----15---14---|-14-----13------|-12------------|-12-----12-----|
|------------------|----------------|---------------|---------------|
|------------------|----------------|---------------|---------------|
|------------------|----------------|---------------|---------------|
|------------------|----------------|---------------|---------------|
Title: Re: Ghost (beneath the surface) powertab
Post by: Jack Lupino on July 16, 2005, 02:00:50 am
MY HERO !!!


H to the rescue !


thanks man
Title: Re: Ghost (beneath the surface) powertab
Post by: H on July 16, 2005, 02:04:00 am
No prob man. Just glad I could help ^_^

Once I figure out some more of the song, I will update the tab :)
Title: Re: Ghost (beneath the surface) powertab
Post by: Jack Lupino on July 16, 2005, 02:08:57 am
My main interest was the solo, i tried, and figued out the most part, then i thot , meh cbfed and waited for some one who is better in tabs..

you.

:P

anyway

how do you hear the tones so well ?

do you have a special thing for it ?
Title: Re: Ghost (beneath the surface) powertab
Post by: H on July 16, 2005, 03:09:27 am
Not really, no.

Just my ears, my guitar, & a lot of patience. ^_^;;;
Title: Re: Ghost (beneath the surface) powertab
Post by: Jack Lupino on July 16, 2005, 04:56:56 pm
lollio, not much diffrence from my techniques ^_^