The Official Machinae Supremacy Forum

Forum Related => Salvaged Messages => Topic started by: Spunky on August 09, 2003, 02:21:01 pm

Title: Other recommended bands
Post by: Spunky on August 09, 2003, 02:21:01 pm
Hey, i was just wondering if any of you have some good bands you could recommend. I only found this because someone told me on the Powerman 5000 web board. Thanks =]
Title: Re:Other recommended bands
Post by: Outboundlight on August 09, 2003, 10:01:43 pm
Some of my favorite bands off the top of my head and in no particular order

In Flames
The Sisters of mercy
Nine Inch Nails
KMFDM
Atari Teenage Riot (Alec Empires solo stuff is good too)
Iron Maiden
Metalica
Lost Horizon
Mad Capsule Markets

Im sure you've heard of most of them anyway but I thought I'd let you kno  ;)
Title: Re:Other recommended bands
Post by: Spunky on August 10, 2003, 11:51:26 am
I love mad capsule market =] Thanks alot man, ill work through this list.
Title: Re:Other recommended bands
Post by: tomas on August 10, 2003, 07:28:19 pm
if you don´t have nothing to do.....check out my playlist, and see if you find something that you like   ;)

http://hem.bredband.net/b118987/winamp/WHT162.tmp.html
Title: Re:Other recommended bands
Post by: Crusty on August 10, 2003, 07:45:37 pm
Check out:

-===Black Debbath ===-  

from norway, sounds like Sabbath

Black Debbath - Mongo Norway
Black Debbath - Problemen innad...
Title: Re:Other recommended bands
Post by: Gravehill on August 10, 2003, 08:12:44 pm
Wow Tomas! Couple things that poked on my eye:
Total amount of mp3's____: 10631
Total amount of playtime__: Ovet 714 hours

...And you got some MA Numminen too! If you like MA Numminen you should try Hiski Salomaa too. They're really old recordings, form 1920's if I remember correctly. Two songs that I especially recommend are:
Vapauden Kaiho
Tiskarin Polkka
Title: Re:Other recommended bands
Post by: wisepenguin on August 10, 2003, 09:14:44 pm
i listen to all sorts of music, anything

however i do suggest everyone listens to the album

children of bodom - hatebreeder

u either love it or hate it
Title: Re:Other recommended bands
Post by: wisepenguin on August 10, 2003, 09:20:52 pm
about children of bodom, dont dismiss them cos of the vocals, just concentrate on the melodies and ignore the vocals

thats what i did when i first started listening to them, now i love them. some songs have the good bits half way through so be patient


just a few personal favs from them, but i like all of them

children of bodom - bed of razors
children of bodom - black widow

children of bodom - everytime i die
children of bodom - kissing the shadows (this is tabbed and on my website)
Title: Re:Other recommended bands
Post by: wisepenguin on August 10, 2003, 09:28:01 pm
sorry to go off topic, but i love this bit in kissing the shadows, took me ages to tab

i seen him do this live and 'sings' at the same time  :o
its bloody fast i can only do it at 120 and on a good day 135bpm and its at 144bpm


Track 1
                                           
D||-----------------12--------------------|
A||---12------14-15-----15-14-15-14-12-10-|
F||*--------------------------------------|
C||*--------------------------------------|
G||---------------------------------------|
D||---------------------------------------|


                                       
----------------12--19-17-15----------|
--12------14-15--------------19-17-15-|
--------------------------------------|
--------------------------------------|
--------------------------------------|
--------------------------------------|


                                                   
--------15-12-17-15-14-12-------------15-14-12----|
--17-19-------------------14-15-17-14----------15-|
--------------------------------------------------|
--------------------------------------------------|
--------------------------------------------------|
--------------------------------------------------|


                                                   
-----------12-14-15-14-12-14-12-------------------|
--12-14-15----------------------15-14-15-14-12-10-|
--------------------------------------------------|
--------------------------------------------------|
--------------------------------------------------|
--------------------------------------------------|


                                                                             
----------------12--------------------|----------------12--19-17-15----------|
--12------14-15-----15-14-15-14-12-10-|--12------14-15--------------19-17-15-|
--------------------------------------|--------------------------------------|
--------------------------------------|--------------------------------------|
--------------------------------------|--------------------------------------|
--------------------------------------|--------------------------------------|


                                                   
--------15-12-17-15-14-12-------------15-14-12----|
--17-19-------------------14-15-17-14----------15-|
--------------------------------------------------|
--------------------------------------------------|
--------------------------------------------------|
--------------------------------------------------|


                                                   
-----------12-14-15-14-12-14-12--------------------||
--12-14-15----------------------15-14-15-14-12-10--||
--------------------------------------------------*||
--------------------------------------------------*||
---------------------------------------------------||
---------------------------------------------------||

Title: Re:Other recommended bands
Post by: Spunky on August 11, 2003, 01:57:41 am
if you don´t have nothing to do.....check out my playlist, and see if you find something that you like   ;)

http://hem.bredband.net/b118987/winamp/WHT162.tmp.html

If i went through that list till i was 60 i wouldn't be half way though  :o But thanks anyway dude  :)
Title: Re:Other recommended bands
Post by: Elrond on August 11, 2003, 04:09:08 am
I love Dream Theater. They're a progressive rock band.
If you're into Machinae's instrumental tunes then let me recommend the following Dream Theater tunes:

The Dance of Eternity
Erotomania
Overture 1928
And just because it rules, get The Glass Prison.
Title: Re:Other recommended bands
Post by: Outboundlight on August 11, 2003, 04:33:28 am
aye I forgot all about Dream Theater, haven't listened to them in ages but theyre really good
Title: Re:Other recommended bands
Post by: Gravehill on August 11, 2003, 09:15:08 am
Dream Theater is good band but it's just music you have to have TIME to listen. I mean their songs are so long and I must listen it to end to get kicks from it. It's not just background music but needs to be listen carefully letting sonic-images and feelings fill the room around you. Nowadays I have too little time to do this as much as I want to!
Title: Re:Other recommended bands
Post by: robert on August 11, 2003, 10:41:14 am
A few of my favourites...

Bif Naked (american similar to, but better than 'no doubt')
Dir en grey (japanese band, insane punk metal with melodic choruses)
Transplants (rap punk)
Teddybears STHLM (cool... just plain cool)
After Forever (kinda like nightwish, but with better vocals)
The Dead Kennedys (old school raw punk. great)
The Pogues (irish folk music)
Headplate (swedish band, hardcore with melodic choruses etc)

You might have heard of some of these bands, but probably not all of them.  ;D
Title: Re:Other recommended bands
Post by: Outboundlight on August 11, 2003, 08:15:51 pm
robert, If you like the Pogues and you like Punk music as well then you would be doing yourself a favour to listen to The Dropkick Murphys, songs i recommend are

Far away coast
Barroom hero
Irish drinking song

funny thing is they are american...
Title: Re:Other recommended bands
Post by: Gravehill on August 11, 2003, 09:06:39 pm
Geez - I just remembered there is another thread with similar name and purpose... Everyone who's interested about other bands might want to check it out too?
Title: Re:Other recommended bands
Post by: neoblAze on August 18, 2003, 03:22:41 pm
Turbonegro!

Good old fashioned norwegian death punk

Muse!

The best of the brits. ;)
Title: Re:Other recommended bands
Post by: k on August 18, 2003, 08:55:40 pm
ok.. if you're looking for some pretty unknown good bands I recommend Dizzy Mizz Lizzy's album Dizzy Mizz Lizzy.

This isn't as heavy as Machinae Supremacy's most songs but it's great. Might sound a bit weird (atleast for me it did) first but listen to songs like Barbedwired Baby's Dream and Waterline more than a few times and you'll start loving it (hopefully) :)