The Official Machinae Supremacy Forum

The Band => Tabs => Topic started by: Jack Lupino on May 16, 2005, 06:18:13 pm

Title: Bouff Riff's n Licxx
Post by: Jack Lupino on May 16, 2005, 06:18:13 pm
Ok.. the mail riff from bouff is simple as stealing candy from a baby *im so evil*
Legend :
1-xxx means 1 strike loudly then palm mute on the 1.
1xxx  means start palm muting on 1 instanty.
x = Palm mute (Eg. xxx Three palm mutes)
Tuning BADGE(e.a.d.g.b.e)

After the bitch counts down from 6 in the intro it goes :

E|----------------------------------xx-2-xx------------------
A|4-xxx-4-4-xxx-4-2-xxx-2-0-xx-4-xx-0-xx-2-xx-4---
D|6-xxx-6-6-xxx-6-4-xxx-4-2-----4----2-xx-4-xx-6----    <-- Then the keyboard goes this tune
G|6-xxx-6-6-xxx-6-4-xxx-4--------------------4----6----           and you start over again.
B|--------------------------------------------------------------
E|--------------------------------------------------------------   

Thennnn we get to the hard part with the palm muted shit :

E|---------------2---0-2-3-
A|4xxxx-0x-4-4-2-2-4-5-
D|6xxxx-6x-6-4-4--------   <-- What you do is, basically, when you are at the E-2 power chord,
G|6xxxx-6x-6----4--------         you leave the A-2 Finger standing,and let the E snare go.
B|---------------------------
E|---------------------------   

It might seem that the A-0 , D-6 and G-6 is a weird chord, but its for easyness to pick the riff cleanly and fast.

>> Now about this im not shure wether it starts at A or D.. i did it for A.

E|
A|0x- 2x------------------------2---0---
D|---------4x-2x-4x-2x-4x-0---2---0-
G|-----------------------------------------
B|-----------------------------------------
E|-----------------------------------------

Then im supposed to bend something somewhere BUT i can't find it and i always fuck it up so fuck it.

Fxd.
Title: Re: Bouff Riff's n Licxx
Post by: MashedByMachines on May 16, 2005, 06:49:48 pm
i figured out the whole thing now, but i cant tab so i cant show u, or waiyt ill try
Title: Re: Bouff Riff's n Licxx
Post by: Jack Lupino on May 16, 2005, 07:08:38 pm
Great !

Its Totally easy !
Title: Re: Bouff Riff's n Licxx
Post by: MashedByMachines on May 16, 2005, 07:22:17 pm
E||-----------------------------|---------------------------|
B||-----------------------------|---------------------------|
G||--6-6-6-6-4-6--2--6-----2--4-|--6-6-6-6-4-6--2--6--------|
D||--6-6-6-6-4-6--2--6--4--2--4-|--6-6-6-6-4-6--2--6--4-----|
A||--4-4-4-4-2-4-----4--4-----2-|--4-4-4-4-2-4-----4--4-----|
E||---------------------2-------|---------------------2-----|


                                                         
-----------------------------|---------------------------|
-----------------------------|---------------------------|
--6-6-6-6-4-6--2--6-----2--4-|--6-6-6-6-4-6--2--6--------|
--6-6-6-6-4-6--2--6--4--2--4-|--6-6-6-6-4-6--2--6--4-----|
--4-4-4-4-2-4-----4--4-----2-|--4-4-4-4-2-4-----4--4-----|
---------------------2-------|---------------------2-----|


                                                                         
-------------------------------|-------------------------------|-------||
-------------------------------|-------------------------------|-------||
--6--x-x-6-6-x-6--x-x-6-6-x-4--|--x-x-4-4-x-4--x-x-2--x-x----x-|--x----||
--6--x-x-6-6-x-6--x-x-6-6-x-4--|--x-x-4-4-x-4--x-x-2--x-x-4--x-|--x-2--||
--4--x-x-4-4-x-4--x-x-4-4-x-2--|--x-x-2-2-x-2--x-x----x-x-4--x-|--x-2--||
-------------------------------|--------------------------2----|-------||



thats what i think it is, but i dont know the synth
Title: Re: Bouff Riff's n Licxx
Post by: Jack Lupino on May 16, 2005, 08:51:30 pm
great ! ill check it out later today !! thanks for the input
Title: Re: Bouff Riff's n Licxx
Post by: MashedByMachines on May 16, 2005, 10:04:00 pm
wiie made a crazy recording  of bouff :P
lol i cant play so good but i love playing ;D
hehe used cubase overdrive, OMG i sounds cool must make insane songs!


http://hem.bredband.net/alexanderhentschel/bouff_culture_of_screaming[mashed].mp3

Title: Re: Bouff Riff's n Licxx
Post by: Jack Lupino on May 16, 2005, 10:54:43 pm
HOLY shit did i drink too much beer or do you sound so super wasted
Title: Re: Bouff Riff's n Licxx
Post by: MashedByMachines on May 16, 2005, 10:56:29 pm
what :P i didnt say it was good, i just love playing even if its sounds bad.
Title: Re: Bouff Riff's n Licxx
Post by: Jack Lupino on May 16, 2005, 11:08:25 pm
lol true musician


i meant irritating bastard
Title: Re: Bouff Riff's n Licxx
Post by: MashedByMachines on May 16, 2005, 11:09:36 pm
dont complain :P

i mostly make music in cubase, thats sounds much better, then i cant play wrong  ;D
Title: Re: Bouff Riff's n Licxx
Post by: Jack Lupino on May 16, 2005, 11:22:53 pm
haha just kiddin  it sounds cool !
Title: Re: Bouff Riff's n Licxx
Post by: MashedByMachines on May 16, 2005, 11:23:47 pm
naww you just say that to make me fel good lol :P
Title: Re: Bouff Riff's n Licxx
Post by: Jack Lupino on May 16, 2005, 11:26:51 pm
lol ok.

you just a pre-maturely prick who cant play an accord different that the standard power chord on BADGE tuning !
Title: Re: Bouff Riff's n Licxx
Post by: MashedByMachines on May 16, 2005, 11:28:24 pm
right :) thats waht i do :P
Title: Re: Bouff Riff's n Licxx
Post by: Jack Lupino on May 16, 2005, 11:48:09 pm
lol anyway lemme hear some more shit of ya
Title: Re: Bouff Riff's n Licxx
Post by: MashedByMachines on May 16, 2005, 11:53:52 pm
what do u want to hear more? :P
what sort of things? :P
Title: Re: Bouff Riff's n Licxx
Post by: Jack Lupino on May 16, 2005, 11:54:50 pm
i dont know .. just put in some links
i steer ya
Title: Re: Bouff Riff's n Licxx
Post by: MashedByMachines on May 16, 2005, 11:58:40 pm
ok maybe some electronic-synth shit

http://hem.bredband.net/alexanderhentschel/broken_falls(mashed).mp3

i cant do drums you know :P
Title: Re: Bouff Riff's n Licxx
Post by: Jack Lupino on May 17, 2005, 12:04:33 am
im a drummer .
Title: Re: Bouff Riff's n Licxx
Post by: MashedByMachines on May 17, 2005, 12:05:56 am
drums is so hard, synth is the easiest, guitar is medium, and drums are fuckdiffcult
Title: Re: Bouff Riff's n Licxx
Post by: Jack Lupino on May 17, 2005, 12:06:44 am
easy.. input talent + effort = sweet drums.. if i had my drumkit here id record somthing.
Title: Re: Bouff Riff's n Licxx
Post by: MashedByMachines on May 17, 2005, 12:07:56 am
okay :) ive never really tested drums so... maybe i could get talent in drums if i tried
Title: Re: Bouff Riff's n Licxx
Post by: Jack Lupino on May 17, 2005, 01:03:33 am
cool ! you just need to get the hang of it
Title: Re: Bouff Riff's n Licxx
Post by: MDX on May 17, 2005, 12:01:27 pm
trueness.
Title: Re: Bouff Riff's n Licxx
Post by: Jack Lupino on May 19, 2005, 02:04:31 pm
so any updates on bouff ? like the solo ???
Title: Re: Bouff Riff's n Licxx
Post by: MDX on July 22, 2005, 04:38:17 pm
Cut mashed some slack :P the dudes w0rkin his colon off!