The Official Machinae Supremacy Forum

The Band => Tabs => Requests => Topic started by: El_Murruk on October 01, 2009, 04:04:49 pm

Title: Jets 'n' Guns OST - Hyperchase (Main Riff)
Post by: El_Murruk on October 01, 2009, 04:04:49 pm
Hello!
I love the Song "Hyperchase" and want to play it. It isn't so hard at all, but i just can't figure out the riff which starts at 0:40.  ??? Has anybody made a tab? Not even the whole song, just this Riff. I'm going to loose my mind if i can't play it all day long. It would be great, if anybody could help me!  :D

THX & Greetz

El_Murruk
Title: Re: Jets 'n' Guns OST - Hyperchase (Main Riff)
Post by: LymphoCite_T on October 01, 2009, 05:34:26 pm
i'll try soon.
(bpm 222[?])
Title: Re: Jets 'n' Guns OST - Hyperchase (Main Riff)
Post by: El_Murruk on October 01, 2009, 05:43:27 pm
Thanks man, that would be awsome!!!
Title: Re: Jets 'n' Guns OST - Hyperchase (Main Riff)
Post by: LymphoCite_T on October 01, 2009, 06:10:37 pm
I must admit it's damn hard expert to tab, but i think first 2 measures are:


E|------------------------------|---------------------------------|
B|------------------------------|---------------------------------|
G|-------------(4)-----(5)------|------------(5)-----(4)----------|
D|-2------------2-------3-------|-------------3-------2-------2---|
A|-0------------0-------1-------|-------------1-------0-------6---|
E|------0---0-------0-------0---|-0---0---0-------0-------0---6---|


i have to admit i am not masterful enough to tab whole riff immediately  :-[
so i'll spend some time before i'll finish it, tho :-\
Title: Re: Jets 'n' Guns OST - Hyperchase (Main Riff)
Post by: LymphoCite_T on October 01, 2009, 09:52:49 pm
ok i give up.

that's all i can do for now (total guessing)

E|---------------------------------|---------------------------------|---------------------------------|
B|---------------------------------|---------------------------------|---------------------------------|
G|-----------------4-------5-------|-------------5-------4-----------|---------------------------------|
D|-----2-----------2-------3-------|-------------3-------2-------2---|-----2---2-----------------------|
A|-----0-----------0-------1-------|-------------1-------0-------6---|-----2---2-------0---0-------2---|
E|-0-------0---0-------0-------0---|-0---0---0-------0-------0---6---|-0-----------0---0---2---0---0---|


E|---------------------------------|---------------------------------|---------------------------------|
B|---------------------------------|---------------------------------|---------------------------------|
G|-4---3---------------------------|-----------------4-------5-------|-------------5-------4-----------|
D|-2---1---------------------------|-----2-----------2-------3-------|-------------3-------2-------2---|
A|-2---1-----------4---3-----------|-----0-----------0-------1-------|-------------1-------0-------6---|
E|---------0---0---4---3---0---0---|-0-------0---0-------0-------0---|-0---0---0-------0-------0---6---|


E|---------------------------------|---------------------------------|---------------------------------|
B|---------------------------------|---------------------------------|---------------------------------|
G|---------------------------------|-4---3---------------------------|-----------------4-------5-------|
D|-----2---2-------4---3-----------|-4---3---4---3-------------------|-----2-----------2-------3-------|
A|-----2---2-------2---1---4---2---|-2---1---4---3---4---3-----------|-----0-----------0-------1-------|
E|-0-----------0-----------2---0---|-----------------4---3---4---3---|-0-------0---0-------0-------0---|


E|---------------------------------|---------------------------------|---------------------------------|
B|---------------------------------|---------------------------------|---------------------------------|
G|-------------5-------4-----------|---------------------------------|-4---3---------------------------|
D|-------------3-------2-------2---|-----2---2-----------------------|-2---1---------------------------|
A|-------------1-------0-------6---|-----2---2-------0---0-------2---|-2---1-----------4---3-----------|
E|-0---0---0-------0-------0---6---|-0-----------0---0---2---0---0---|---------0---0---4---3---0---0---|


E|---------------------------------|---------------------------------|---------------------------------|
B|---------------------------------|---------------------------------|---------------------------------|
G|-----------------4-------5-------|-------------5-------4-----------|---------------------------------|
D|-----2-----------2-------3-------|-------------3-------2-------2---|-----2---2-------4---3-----------|
A|-----0-----------0-------1-------|-------------1-------0-------6---|-----2---2-------2---1---4---2---|
E|-0-------0---0-------0-------0---|-0---0---0-------0-------0---6---|-0-----------0-----------2---0---|


E|---------------------------------|
B|---------------------------------|
G|-4---3---------------------------|
D|-4---3---4---3-------------------|
A|-2---1---4---3---4---3-----------|
E|-----------------4---3---4---3---|
(n x)


request is still actual.
Title: Re: Jets 'n' Guns OST - Hyperchase (Main Riff)
Post by: El_Murruk on October 01, 2009, 10:52:35 pm
Ok, thanks for your help! I keep on trying... but... its damn hard!  ;)
Title: Re: Jets 'n' Guns OST - Hyperchase (Main Riff)
Post by: LymphoCite_T on October 03, 2009, 07:34:09 pm
E|-----------------------------------|---------------------------------|---------------------------------|
B|-----------------------------------|---------------------------------|---------------------------------|
G|-----4-----------4--4------5-------|-------------5-------4-------4---|---------------------------------|
D|-----4-----------4--4------5-------|-------------3-------4-------2---|-----5---5-------2---2-----------|
A|-----2-----------2--2------3-------|-------------3-------2-------2---|-----3---3-------0---0-------0---|
E|-0-------0---0---------0-------0---|-0---0---0-------0-------0-------|-0-----------0-----------0---0---|


E|---------------------------------|
B|---------------------------------|
G|---------------------------------|
D|---------5---4-------------------|
A|---------3---2-----------5---4---|
E|-0---0-----------0---0---3---2---|



in progress...
measure 3 is still wrong i think

mebbe ill end it sometimes
Title: Re: Jets 'n' Guns OST - Hyperchase (Main Riff)
Post by: LymphoCite_T on October 06, 2009, 11:50:19 pm
btw. intro

E|-------------------------------------|------------------------------|---------------------------------|
B|-------------------------------------|------------------------------|---------------------------------|
G|-------------------------------------|------------------------------|---------------------------------|
D|-------------------------------------|------------------------------|---------------------------------|
A|-------------------------------------|------------------------------|---------------------------------|
E|-12\0--0---0-------0---0---0---------|-0---0---0-------0---2----3---|-0---0---0-------0---0---0-------|


E|------------------------------|
B|------------------------------|
G|------------------------------|
D|------------------------------|
A|------------------------------|
E|-0---0---0-------0---6----5---|




bass(5 string) = same + p.fifths
Title: Re: Jets 'n' Guns OST - Hyperchase (Main Riff)
Post by: LymphoCite_T on August 12, 2010, 03:17:58 pm
all i wrote before was bullshit. that's how main riff goes :
http://koalafighter.cba.pl/taby/hyperchasev1.gp5 (http://koalafighter.cba.pl/taby/hyperchasev1.gp5)