Author Topic: [WIP] Hubnester Rising  (Read 1519 times)

0 Members and 1 Guest are viewing this topic.

Offline Chimeray

  • Newbie
  • *
  • Posts: 29
  • Karma: 0
  • I'm a llama!
[WIP] Hubnester Rising
« on: September 07, 2014, 06:00:16 pm »
This is what I have for Hubnester Rising. I've never tabbed before so I don't really know how to properly space in between to show the rhythm but I hope you'll get it :)
And I hope it's somewhat correct. I'm struggling a bit with the second part of the clean section (hence the question marks) cos I assume there's 2 guitars overlapping, or something? I can't really replicate it properly here :/

Help appreciated!


Code: [Select]
Clean
e-----------------------------------------------------------------------------|
b-----------------------------------------------------------------------------|
g----------------14---------------------------------------14------------------|
d-14-14-14-16-17----17-16-14---------------14-14-14-16-17----17-16-14-16-17---|
a----------------------------17-14--------------------------------------------|
e-----------------------------------------------------------------------------|

e----------------------------------------------------------------14-15--------|
b----------------------------------------------------------17-15--------------|
g----------14-16-17-16-14-----------------------------------------------------|
d-17-17-17----------------17-16-14----------14-14-14-16-17--------------------|
a-----------------------------------------------------------------------------|
e-----------------------------------------------------------------------------|

e-------------14-15-15-15-17-15-14---------------?-?-?-?-?-?-?-?-?-?-?-?-?----|
b-15-15-15-17----------------------15-14-15------?-?-?-?-?-?-?-?-?-?-?-?-?----|
g-----------------------------------------------------------------------------|
d-----------------------------------------------------------------------------|
a-----------------------------------------------------------------------------|
e-----------------------------------------------------------------------------|



Distortion
e---------14-15---15-17-14---------------------------------------15---15-17-14---------15-|
b-15---15--------------------15-14-15-----------------15---15-17-----------------17-15----|
g-----------------------------------------------------------------------------------------|
d-----------------------------------------------------------------------------------------|
a-----------------------------------------------------------------------------------------|
e-----------------------------------------------------------------------------------------|

Offline Sherban

  • Newbie
  • *
  • Posts: 1
  • Karma: 0
Re: [WIP] Hubnester Rising
« Reply #1 on: September 10, 2014, 08:17:52 am »
Here's my take on the opening part. Like you said there is a second guitar coming in on the third row, but this sounds a bit better to me. What do you think?

Code: [Select]
Clean
e------------------------------------------------|
b------------------------------------------------|
g-------------------------16-14------------------|
d-14----14-14-14-16-17----------16----14---------|
a----------------------------------------17-14---|
e------------------------------------------------|

e------------------------------------------------|
b------------------------------------------------|
g-------------------------16-14------------------|
d-14----14-14-14-16-17----------16----14-16-17---|
a------------------------------------------------|
e------------------------------------------------|

e------------------------------------------------|
b------------------------------------------------|
g-------------------------16-14------------------|
d-14----14-14-14-16-17----------16----14---------|
a----------------------------------------17-15---|
e------------------------------------------------|


e------------------------------------------------|
b-------------------------------------17-15-17---|
g-------------------------16-14-16---------------|
d-14----14-14-14-16-17---------------------------|
a------------------------------------------------|
e------------------------------------------------|


Offline Spiderweed

  • Newbie
  • *
  • Posts: 20
  • Karma: 0
Re: [WIP] Hubnester Rising
« Reply #2 on: September 10, 2014, 06:55:04 pm »
Mind if I crash the party?

I think you are both on the right track (no pun intended). I made a .gp5 file of the intro the way I think it is played. It's not all that different from yours, but you can check the harmony on the tabs. The upper harmony is mostly just 3rds. I'll finish the .gp file when I have more time.

Spiderweed out

https://www.mediafire.com/?l9dflptjld83jar
"Melting faces while pwning n00bs"
#JustMachinaeThings

Offline Chimeray

  • Newbie
  • *
  • Posts: 29
  • Karma: 0
  • I'm a llama!
Re: [WIP] Hubnester Rising
« Reply #3 on: September 10, 2014, 09:32:54 pm »
Awesome, thanks! :)

Seems like you're a one man army! I'll see if I got some more time this weekend to figure out the other sections but at this rate you'll have it done entirely before long ;)
Went over the .gp5, seems pretty correct to me! :)
« Last Edit: September 10, 2014, 09:35:29 pm by Chimeray »

Offline Spiderweed

  • Newbie
  • *
  • Posts: 20
  • Karma: 0
Re: [WIP] Hubnester Rising
« Reply #4 on: September 13, 2014, 06:43:10 pm »
Yea... the tab I had was almost complete when I posted that intro. Now I finally got around to finishing it.

So here you go:

                                     Machinae Supremacy - Hubnester Rising.gp5. Now with solos!
                                               https://www.mediafire.com/?opcekkkey3xat72  <---------------------------------------------------------------

P.S. Feel free to improvise a rhythm yourself when playing straight chords (in some of the chorus' and the verses).  The rhythm in the tabs is complex and a simpler rhythm could be more accurate.
Let me know what you think, and repost your own versions if you find something to correct. Have fun playing.



Spiderweed out
"Melting faces while pwning n00bs"
#JustMachinaeThings

Offline MashedByMachines

  • That guy
  • Community Supporter
  • Sr. Member
  • ******
  • Posts: 1927
  • Karma: 15
  • Gender: Male
  • Skala lök?
    • Music
Re: [WIP] Hubnester Rising
« Reply #5 on: September 17, 2014, 12:48:19 am »
Amazing work :D

http://mashedbymachines.newgrounds.com/


Believing in a zombieman from outer space who is his own father is pretty funny, but that's not what MaSu is about //yas