The Band > Tabs

[WIP][TABS] Rise of a Digital Nation

(1/8) > >>

Krywk:
Hello there peepz, I've personally done this tab of 'Rise of a Digital Nation' by ear. Might not be 100% accurate, and it's missing the solo. Feel free to help.

It's attached, because it's too long. :/

Hope you enjoy!

sjbelius:

--- Code: -----------------------------------------------
--------------------------------------------
-----9--------------9-----------------------
---------11----9--------11----9-------------
-9-9---9----9-----9---9----9----12--7--9----
--------------------------------------------
 * *   *    *     *   *    *           ~~
--- End code ---
Doesn't the intro riff go more like this?
Will look into the rest later


also, IMO the solo goes like this:

--- Code: ---All bends are 2 semitones:

       [ - - - 3 - - - ]        [ - - - 3 - - - ]
-14----17p14----17p14-----14----17p14----17p14-----14--
-17b---------17-------17--17b---------17-------17--17b-
-------------------------------------------------------
-------------------------------------------------------
-------------------------------------------------------
-------------------------------------------------------


* bend to 19 and release
 quickly (A to B)


   [ - - - - - - - 3 - - - - - - - ]
---17-14----------------------------14-17b*--14---17b~-
---------17-14----------------14-17--------------------
---------------16-14----14-16--------------------------
---------------------16--------------------------------
-------------------------------------------------------
-------------------------------------------------------

       [ - - - 3 - - - ]        [ - - - 3 - - - ]
-14----17p14----17p14-----14----17p14----17p14-----14--
-17b---------17-------17--17b---------17-------17--17b-
-------------------------------------------------------
-------------------------------------------------------
-------------------------------------------------------
-------------------------------------------------------

-/17--16----------16---17b~~~~-------------------------
----------17--/19--------------------------------------
-------------------------------------------------------
-------------------------------------------------------
-------------------------------------------------------
-------------------------------------------------------
-------------------------------------------------------
Lots of vibrato on the last bend
--- End code ---

edit:
scrap that, the triplets are prolly not only A,F#,E, but something else is going on there too, i think

Krywk:
You're right about the intro, thanks for the correction, will edit later :)

Also the solo is good too, but I don't think the intro is 2-stringed. I think it's more like a tapping going on there:


--- Code: ---All bends are 2 semitones:

       [ - - - 3 - - - ]        [ - - - 3 - - - ]
           T  T     T  T            T  T     T  T
-14----17p14p12-17p14p12--14----17p14p12-17p14p12--14--
-17b----------------------17b----------------------17b-
-------------------------------------------------------
-------------------------------------------------------
-------------------------------------------------------
-------------------------------------------------------
--- End code ---

Check it out. :)

EDIT: Or maybe even not tapping, just plain pull-offs.

DevilhunterDante:
TNX Dudes !
I will also write some of it's tabs by Guitar pro 6 as I could have some free time.

OmegaVesko:

--- Quote from: DevilhunterDante on October 25, 2012, 05:27:03 pm ---TNX Dudes !
I will also write some of it's tabs by Guitar pro 6 as I could have some free time.

--- End quote ---

That would be amazing. Being able to open tabs in TuxGuitar is incredibly helpful.

Navigation

[0] Message Index

[#] Next page

Go to full version