Author Topic: World of Light  (Read 2705 times)

0 Members and 1 Guest are viewing this topic.

Offline Danton

  • Newbie
  • *
  • Posts: 30
  • Karma: 0
  • Gender: Male
  • Chaos Incarnate
World of Light
« on: December 25, 2010, 10:56:35 am »
While I'm busy procrastinating my other tabbing projects more (Empire and Ninja), I went ahead and got the intro guitar for World of Light down. Or at least, what I think is "pretty close". Feel free to correct.

Clean (All notes are natural harmonics)
Code: [Select]
||----------|------------12--------||
||----------|-o------12----------o-||
||----------|----12----------------||
||----------|----------------------||
||-7--------|-o------------------o-||
||----------|----------------------||

Lead
Code: [Select]
||--------------------7----||
||-o--------8-----10-----o-||
||-------9-----------------||
||-------------9-----------||
||-o--7------------------o-||
||-------------------------||


UPDATE

Bass

Code: [Select]
||-------2----------------------------------------------------------------------------||
||---------2------2-3-3/5----5-5-7----------------------------------------------------||     Second time
||--0-------3----3----------------5----5--7-8--8-7-5--5-7-8/11--7\--5-3-2--2/7--3-2---||  ||--/12-14-15\--8--8-7-5--5-7-8-8/11--7\--5-3-2--2/7--3-2-0------||
||------------------------------------------------------------------------------------||

(Bass typed and formatted in the reply box, via phone. Sorry for the mess.)
« Last Edit: June 02, 2014, 02:00:09 am by Danton »
This space isn't unintentionally not left unblank.

Offline Danton

  • Newbie
  • *
  • Posts: 30
  • Karma: 0
  • Gender: Male
  • Chaos Incarnate
Re: World of Light
« Reply #1 on: June 02, 2014, 02:03:57 am »
Updated. Forgot to add the bass a long time ago. I think I also did the two guitars at the bass, but I can't find it anywhere. Too lazy to figure it out now.
This space isn't unintentionally not left unblank.