Author Topic: hubnester inferno  (Read 2138 times)

0 Members and 1 Guest are viewing this topic.

Offline wisepenguin

  • Newbie
  • *
  • Posts: 74
  • Karma: 10
  • moooooooooo !
    • Web
hubnester inferno
« on: May 11, 2003, 12:02:33 am »
the rhythm played during the solo at the end



e-|-
b-|-
g-|-
d-|-9---9-9-----5---5-5-----|-9---9-9-----2---7-7--|
a-|-9---9-9-----5---5-5-----|-9---9-9-----2---7-7--|
e-|-7---7-7-----3---3-3-----|-7---7-7-----0---5-5--|
« Last Edit: May 11, 2003, 01:27:37 am by hazul »

Offline Skvate

  • Jr. Member
  • **
  • Posts: 166
  • Karma: 13
  • Gender: Male
  • Mediocre
Re:hubnester inferno
« Reply #1 on: May 11, 2003, 04:42:47 pm »
Heres a part of the intro.... also used in variations throughout the song.

  Gtr I
        PM              PM|               PM        PM  PM  PM  PM--|
|---------------------------------:---------------------------------------|
|---------------------------------:---------------------------------------|
|---------------------------------:---------------------------------------|
|---2-4---4-5-4-----4-5-----2-4-5-:---2-4---4-5-4-----4---3---------------|
|-2-----2-------2-3-----2-3-------:-2-----2-------2-----------5-------4-2-|
|---------------------------------:-----------------3---3---3---2-3-5-----|
« Last Edit: May 11, 2003, 04:43:56 pm by Skvate »
Lifeless I sail through these ironic fashions, dressed in the flesh of the jokers passions. On the uttermost brink of madness I stroll, and the rise of insanity as my most precious goal. Tricking the trail of my long lost obscurity, I gather me inside the artifice of eternity....