Author Topic: Truth of Tomorrow guitar tab  (Read 6344 times)

0 Members and 1 Guest are viewing this topic.

Offline Darth Reals

  • Newbie
  • *
  • Posts: 9
  • Karma: 0
  • Gender: Male
  • The Asylum Chief
Truth of Tomorrow guitar tab
« on: April 07, 2010, 02:22:06 am »
Hello everyone, I've started to work on Truth of Tomorrow tab and I want to show you some tabbed parts so you can give me some feedback and your opinions :) actually, I've started to tab it just 4 hours ago, so it might be really bad. I've already done intro, verse, pre-chorus and chorus (which is, actually, has the same chords as the intro, but plays a little different).

http://www.4shared.com/file/gGP9GFs0/Truth_of_Tomorrow.html
  >:D

Intro Synth
     E.   E.  Q.     Q       W                   E.   E.  Q.     Q     
E||--7---13---7------9----|--9----------------|--7---19---7------5----|
B||-----------------------|-------------------|-----------------------|
G||-----------------------|-------------------|-----------------------|
D||-----------------------|-------------------|-----------------------|
A||-----------------------|-------------------|-----------------------|
E||-----------------------|-------------------|-----------------------|


  H.           Q        E.   E.  Q.     Q       W                 
--2------------LS----|--7---13---7------9----|--9----------------|
---------------------|-----------------------|-------------------|
---------------------|-----------------------|-------------------|
---------------------|-----------------------|-------------------|
---------------------|-----------------------|-------------------|
---------------------|-----------------------|-------------------|


  E.  E.  Q.     Q       W                                                 
--3---7---5------0----|--2----------------|
----------------------|-------------------|
----------------------|-------------------|
----------------------|-------------------|
----------------------|-------------------|
----------------------|-------------------|

Intro Guitar
  E  E  E  E  E  E  E  E     E  E  E  E  E  E  E  E   
--------------------------|--------------------------|
--------------------------|--------------------------|
--------------------------|--------------------------|
--2--2--2--2--2--2--2--2--|--2--2--2--2--5--5--5--5--|
--2--2--2--2--2--2--2--2--|--2--2--2--2--5--5--5--5--|
--0--0--0--0--0--0--0--0--|--0--0--0--0--3--3--3--3--|

                                PM    PM       PM    PM     
  E  E  E  E  E  E  E  E     E  S  E  S  E  E  S  E  S  E   
--------------------------|--------------------------------|
--------------------------|--------------------------------|
--------------------------|--------------------------------|
--7--7--7--7--7--7--7--7--|--5-----5-----5--7-----7-----7--|
--7--7--7--7--7--7--7--7--|--5--5--5--5--5--7--7--7--7--7--|
--5--5--5--5--5--5--5--5--|--3--3--3--3--3--5--5--5--5--5--|


  E  E  E  E  E  E  E  E     E  E  E  E  E  E  E  E   
--------------------------|--------------------------|
--------------------------|--------------------------|
--------------------------|--------------------------|
--2--2--2--2--2--2--2--2--|--2--2--2--2--5--5--5--5--|
--2--2--2--2--2--2--2--2--|--2--2--2--2--5--5--5--5--|
--0--0--0--0--0--0--0--0--|--0--0--0--0--3--3--3--3--|


                                PM    PM       PM    PM     
  E  E  E  E  E  E  E  E     E  S  E  S  E  E  S  E  S  E   
--------------------------|---------------------------------|
--------------------------|---------------------------------|
--------------------------|---------------------------------|
--7--7--7--7--7--7--7--7--|--5-----5-----5--7-----7-----7\--|
--7--7--7--7--7--7--7--7--|--5--5--5--5--5--7--7--7--7--7\--|
--5--5--5--5--5--5--5--5--|--3--3--3--3--3--5--5--5--5--5\--|

Verse Guitar

    PM PM   PM PM PM PM PM PM   PM   PM   PM 
  S S  S  S S  S  S  S  S  S  S S  S S  S S   
---------------------------------------------|
---------------------------------------------|
---------------------------------------------|
--2-------2-------------------2----2----2----|
--2-2--2--2-2--2--2--2--2--2--2-2--2-2--2-2--|
--0-0--0--0-0--0--0--0--0--0--0-0--0-0--0-0--|


    PM PM   PM PM PM PM PM PM   PM   PM   PM 
  S S  S  S S  S  S  S  S  S  S S  S S  S S   
---------------------------------------------|
---------------------------------------------|
---------------------------------------------|
--7-------7-------------------7----7----7----|
--7-7--7--7-7--7--7--7--7--7--7-7--7-7--7-7--|
--5-5--5--5-5--5--5--5--5--5--5-5--5-5--5-5--|


    PM PM   PM PM PM PM PM PM   PM         
  S S  S  S S  S  S  S  S  S  S S  S S S S 
-------------------------------------------|
-------------------------------------------|
-------------------------------------------|
--5-------5-------------------5----4-5-4-0-|
--5-5--5--5-5--5--5--5--5--5--5-5----------|
--3-3--3--3-3--3--3--3--3--3--3-3----------|


    PM PM   PM PM PM PM PM   PM PM   PM     
  S S  S  S S  S  S  S  S  S S  S  S S  S S 
--------------------------------------------|
--------------------------------------------|
--------------------------------------------|
--2-------2----------------2-------2----2-2-|
--2-2--2--2-2--2--2--2--2--2-2--2--2-2--2-2-|
--0-0--0--0-0--0--0--0--0--0-0--0--0-0--0-0-|


    PM PM   PM PM PM PM PM PM   PM   PM   PM 
  S S  S  S S  S  S  S  S  S  S S  S S  S S   
---------------------------------------------|
---------------------------------------------|
---------------------------------------------|
--2-------2-------------------2----2----2----|
--2-2--2--2-2--2--2--2--2--2--2-2--2-2--2-2--|
--0-0--0--0-0--0--0--0--0--0--0-0--0-0--0-0--|


    PM PM   PM PM PM PM PM PM   PM   PM   PM 
  S S  S  S S  S  S  S  S  S  S S  S S  S S   
---------------------------------------------|
---------------------------------------------|
---------------------------------------------|
--7-------7-------------------7----7----7----|
--7-7--7--7-7--7--7--7--7--7--7-7--7-7--7-7--|
--5-5--5--5-5--5--5--5--5--5--5-5--5-5--5-5--|


  E  E  E  E   E   E   E   E     E  E  E  E  E  Q.       
------------------------------|-------------------------|
------------------------------|-------------------------|
------------------------------|-------------------------|
--7--7--7--7--10--10--10--10--|--2--2--2--2--2--2\------|
--7--7--7--7--10--10--10--10--|--2--2--2--2--2--2\------|
--5--5--5--5---8---8---8---8--|--0--0--0--0--0--0\------|


« Last Edit: April 15, 2010, 11:32:58 am by Darth Reals »
vodka medved' balalayka durak

Offline Darth Reals

  • Newbie
  • *
  • Posts: 9
  • Karma: 0
  • Gender: Male
  • The Asylum Chief
Re: Truth of Tomorrow guitar tab
« Reply #1 on: April 07, 2010, 03:39:36 am »
Pre-Chorus Guitar


  E  E  E  E  E  E  E  E     E  E  E  E  E  E  E  E   
--------------------------|--------------------------|
--------------------------|--------------------------|
--------------------------|--------------------------|
--4--4--4--4--4--4--4--4--|--7--7--7--7--7--7--7--7--|
--4--4--4--4--4--4--4--4--|--7--7--7--7--7--7--7--7--|
--2--2--2--2--2--2--2--2--|--5--5--5--5--5--5--5--5--|


  E  E  E  E  E  E  E  E     E  E  E  E  E  E  E  E   
--------------------------|--------------------------|
--------------------------|--------------------------|
--------------------------|--------------------------|
--5--5--5--5--5--5--5--5--|--4--4--4--4--4--4--4--4--|
--5--5--5--5--5--5--5--5--|--4--4--4--4--4--4--4--4--|
--3--3--3--3--3--3--3--3--|--2--2--2--2--2--2--2--2--|


  E  E  E  E  E  E  E  E     E  E  E  E  E  E  E  E   
--------------------------|--------------------------|
--------------------------|--------------------------|
--------------------------|--------------------------|
--4--4--4--4--4--4--4--4--|--7--7--7--7--7--7--7--7--|
--4--4--4--4--4--4--4--4--|--7--7--7--7--7--7--7--7--|
--2--2--2--2--2--2--2--2--|--5--5--5--5--5--5--5--5--|


    PM PM PM PM PM PM PM   PM PM PM PM PM PM PM 
  S S  S  S  S  S  S  S  S S  S  S  S  S  S  S   
------------------------------------------------|
------------------------------------------------|
------------------------------------------------|
--5----------------------7----------------------|
--5-5--5--5--5--5--5--5--7-7--7--7--7--7--7--7--|
--3-3--3--3--3--3--3--3--5-5--5--5--5--5--5--5--|


  H        H         
---------------------|
---------------------|
---------------------|
--4--------L\--------|
--4--------L\--------|
--2--------L\--------|

Chorus Guitar

     PM PM PM PM       PM PM    PM PM 
  E  S  S  S  S  E  E  S  S  E  S  S   
--------------------------------------|
--------------------------------------|
--------------------------------------|
--2--------------2--2--------2--------|
--2--2--2--2--2--2--2--2--2--2--2--2--|
--0--0--0--0--0--0--0--0--0--0--0--0--|


     PM PM PM PM       PM PM    PM PM 
  E  S  S  S  S  E  E  S  S  E  S  S   
--------------------------------------|
--------------------------------------|
--------------------------------------|
--2--------------2--5--------5--------|
--2--2--2--2--2--2--5--5--5--5--5--5--|
--0--0--0--0--0--0--3--3--3--3--3--3--|


     PM PM PM PM       PM PM    PM PM 
  E  S  S  S  S  E  E  S  S  E  S  S   
--------------------------------------|
--------------------------------------|
--------------------------------------|
--7--------------7--7--------7--------|
--7--7--7--7--7--7--7--7--7--7--7--7--|
--5--5--5--5--5--5--5--5--5--5--5--5--|


     PM    PM       PM    PM     
  E  S  E  S  E  E  S  E  S  E   
--------------------------------|
--------------------------------|
--------------------------------|
--5-----5-----5--7-----7-----7--|
--5--5--5--5--5--7--7--7--7--7--|
--3--3--3--3--3--5--5--5--5--5--|


     PM PM PM PM       PM PM    PM PM 
  E  S  S  S  S  E  E  S  S  E  S  S   
--------------------------------------|
--------------------------------------|
--------------------------------------|
--2--------------2--2--------2--------|
--2--2--2--2--2--2--2--2--2--2--2--2--|
--0--0--0--0--0--0--0--0--0--0--0--0--|


     PM PM PM PM       PM PM    PM PM 
  E  S  S  S  S  E  E  S  S  E  S  S   
--------------------------------------|
--------------------------------------|
--------------------------------------|
--2--------------2--5--------5--------|
--2--2--2--2--2--2--5--5--5--5--5--5--|
--0--0--0--0--0--0--3--3--3--3--3--3--|


     PM PM PM PM       PM PM    PM PM 
  E  S  S  S  S  E  E  S  S  E  S  S   
--------------------------------------|
--------------------------------------|
--------------------------------------|
--7--------------7--7--------7--------|
--7--7--7--7--7--7--7--7--7--7--7--7--|
--5--5--5--5--5--5--5--5--5--5--5--5--|


     PM    PM       PM    PM                             
  E  S  E  S  E  E  S  E  S  E                           
--------------------------------|
--------------------------------|
--------------------------------|
--5-----5-----5--7-----7-----7--|
--5--5--5--5--5--7--7--7--7--7--|
--3--3--3--3--3--5--5--5--5--5--|

« Last Edit: April 07, 2010, 11:27:21 pm by Darth Reals »
vodka medved' balalayka durak

Offline Darth Reals

  • Newbie
  • *
  • Posts: 9
  • Karma: 0
  • Gender: Male
  • The Asylum Chief
Re: Truth of Tomorrow guitar tab
« Reply #2 on: April 07, 2010, 11:32:19 pm »
figured out Synth in the Chorus part:

S S S  E  S  E   Q     E  E      Q.      E   Q    Q     
------7-10--9------------------|--15------19--15----7----|
--------------10--12----10--7--|-------------------------|
-------------------------------|-------------------------|
-------------------------------|-------------------------|
-------------------------------|-------------------------|
-------------------------------|-------------------------|


  S S  S  E  S  E  Q    E  T  T   T T 
---------10--8------------------------|
------10-------10--8----5--8s-9s-10-L-|
--------------------------------------|
--------------------------------------|
--------------------------------------|
--------------------------------------|


   Q.      E   Q     Q         E.   E  S  E   Q     E  E   
--22------22--22----22\----|-------10--9------------------|
---------------------------|--10---------10--12----10--7--|
---------------------------|------------------------------|
---------------------------|------------------------------|
---------------------------|------------------------------|
---------------------------|------------------------------|


   Q.      E   Q    Q     
--15------19--15----7----|
-------------------------|
-------------------------|
-------------------------|
-------------------------|
-------------------------|


  S S  S  E  S  E  Q    E  T  T   T T 
---------10--8------------------------|
------10-------10--8----5--8s-9s-10-L-|
--------------------------------------|
--------------------------------------|
--------------------------------------|
--------------------------------------|


   Q.      E   Q     Q                                     
--22------22--24----20\----|
---------------------------|
---------------------------|
---------------------------|
---------------------------|
---------------------------|


gp file updated
vodka medved' balalayka durak

Offline LymphoCite_T

  • SiteDeveloper
  • Full Member
  • ****
  • Posts: 512
  • Karma: 3
  • Gender: Male
    • visit me at youtube!
Re: Truth of Tomorrow guitar tab
« Reply #3 on: April 08, 2010, 11:32:47 am »
intro synth
E||--7---14---7------9----|--9----------------|--7---19---7------5----|
B||-----------------------|-------------------|-----------------------|
G||-----------------------|-------------------|-----------------------|
D||-----------------------|-------------------|-----------------------|
A||-----------------------|-------------------|-----------------------|
E||-----------------------|-------------------|-----------------------|


now it matches B Minor Scale - i'm quite sure whole song matches B Minor, so i have some doubts about your other synths too. sorry for my bad english  :P
:):):)

Offline Darth Reals

  • Newbie
  • *
  • Posts: 9
  • Karma: 0
  • Gender: Male
  • The Asylum Chief
Re: Truth of Tomorrow guitar tab
« Reply #4 on: April 08, 2010, 01:05:23 pm »
now it matches B Minor Scale - i'm quite sure whole song matches B Minor, so i have some doubts about your other synths too. sorry for my bad english  :P

actually - I used your notes for the intro synth from this topic, because I think they are right: http://forum.machinaesupremacy.com/index.php/topic,6825.0.html

I just added slide between 4 and 5 measure. Dunno about Chorus Synth, but for me it sounds like correct. actually, it's much harder to tab these synths than guitar, 'cause guitar interferes to hear them.

maybe you can try your own on Chorus Synth? :) I just want to have correct tab for this song, I'm not really skilled in tabbing, so I'm just trying my best and always appreciate help :)

BTW, your english is ok, since it's not my main language too :)

UPD: about Intro Synth - yeah, I think 14 fret is correct, but also we need to change 19 fret in 3rd measure to 17.
« Last Edit: April 08, 2010, 02:08:56 pm by Darth Reals »
vodka medved' balalayka durak

Offline LymphoCite_T

  • SiteDeveloper
  • Full Member
  • ****
  • Posts: 512
  • Karma: 3
  • Gender: Male
    • visit me at youtube!
Re: Truth of Tomorrow guitar tab
« Reply #5 on: April 08, 2010, 03:17:27 pm »
maybe you can try your own on Chorus Synth? :) I just want to have correct tab for this song, I'm not really skilled in tabbing, so I'm just trying my best and always appreciate help :)

fourth measure of chorus synth IMO goes G, G, G, F#, E; but i'm not sure about octave.
eighth measure: G, G, G, F#, F#;
and next measure: E two octaves lower
other measures sound good.

but also we need to change 19 fret in 3rd measure to 17.
nope, I listened both versions, and i'm sure that 19  fret in 3rd measure is ok

(possible mistakes - i'm just a human)
:):):)

Offline Darth Reals

  • Newbie
  • *
  • Posts: 9
  • Karma: 0
  • Gender: Male
  • The Asylum Chief
Re: Truth of Tomorrow guitar tab
« Reply #6 on: April 09, 2010, 12:57:23 pm »
fourth measure of chorus synth IMO goes G, G, G, F#, E; but i'm not sure about octave.
eighth measure: G, G, G, F#, F#;
and next measure: E two octaves lower
other measures sound good.

What if 4th measure goes like this?

  E.   E.   E  Q    E  E   
------15\-----------------|
--8---------8--8----7--5--|
--------------------------|
--------------------------|
--------------------------|
--------------------------|


I can clearly hear changing notes from lower to higher octave

And also, what can you say about my guitar parts?
« Last Edit: April 09, 2010, 01:23:39 pm by Darth Reals »
vodka medved' balalayka durak

Offline LymphoCite_T

  • SiteDeveloper
  • Full Member
  • ****
  • Posts: 512
  • Karma: 3
  • Gender: Male
    • visit me at youtube!
Re: Truth of Tomorrow guitar tab
« Reply #7 on: April 09, 2010, 03:51:32 pm »
fourth measure of chorus synth IMO goes G, G, G, F#, E; but i'm not sure about octave.
eighth measure: G, G, G, F#, F#;
and next measure: E two octaves lower
other measures sound good.

What if 4th measure goes like this?
  E.   E.   E  Q    E  E   
------15\-----------------|
--8---------8--8----7--5--|
--------------------------|
--------------------------|
--------------------------|
--------------------------|


I can clearly hear changing notes from lower to higher octave

i must admit it sounds right.



And also, what can you say about my guitar parts?
i think they're very accurate
:):):)

Offline Darth Reals

  • Newbie
  • *
  • Posts: 9
  • Karma: 0
  • Gender: Male
  • The Asylum Chief
Re: Truth of Tomorrow guitar tab
« Reply #8 on: April 15, 2010, 11:29:18 am »

------7-10--9------------------|--15------19--15----7----|
--------------10--12----10--7--|-------------------------|
-------------------------------|-------------------------|
-------------------------------|-------------------------|
-------------------------------|-------------------------|
-------------------------------|-------------------------|



---------10--8------------------------|
------10-------10--8----5--8s-9s-10-L-|
--------------------------------------|
--------------------------------------|
--------------------------------------|
--------------------------------------|



------15s-14s-13s-12---------------|
--8------------------8--8----7--5--|
-----------------------------------|
-----------------------------------|
-----------------------------------|
-----------------------------------|



-------10--9------------------|--15------19--15----7----|
--10---------10--12----10--7--|-------------------------|
------------------------------|-------------------------|
------------------------------|-------------------------|
------------------------------|-------------------------|
------------------------------|-------------------------|



---------10--8------------------------|
------10-------10--8----5--8s-9s-10-L-|
--------------------------------------|
--------------------------------------|
--------------------------------------|
--------------------------------------|



------15s-14s-13s-12------------14--|
--8------------------8--8----7------|
------------------------------------|
------------------------------------|
------------------------------------|
------------------------------------|


                                       
--12----(12)--------------|
--------------------------|
--------------------------|
--------------------------|
--------------------------|
--------------------------|


This is, how I think, all the chorus synth(s?) sounds. But maybe there are also 2nd synth below this and guitar, which is almost impossible to transcribe separately. I hope I'll have some time to finish this tab soon.
vodka medved' balalayka durak

Offline Danton

  • Newbie
  • *
  • Posts: 30
  • Karma: 0
  • Gender: Male
  • Chaos Incarnate
Re: Truth of Tomorrow guitar tab
« Reply #9 on: April 17, 2010, 11:10:36 am »
I'm not quite sure about the synth (I'm having trouble reading along while listening tonight), but I'm pretty sure all the guitar stuff is accurate. Good job!
This space isn't unintentionally not left unblank.

Offline Wolfger

  • Newbie
  • *
  • Posts: 1
  • Karma: 0
  • Gender: Male
Re: Truth of Tomorrow guitar tab
« Reply #10 on: January 07, 2011, 06:14:12 pm »
I've tried to change some chords and add bridge and interlude

http://www.4shared.com/file/1pjtzdrV/Truth_of_Tomorrow.html