Author Topic: Hero Full Chords, except for Solo  (Read 2906 times)

0 Members and 1 Guest are viewing this topic.

Offline refic

  • mr. banjoles
  • Administrator
  • Machinae Prime
  • *****
  • Posts: I am a geek!!
  • Karma: 62
  • Gender: Male
  • mr. banjoles
Hero Full Chords, except for Solo
« on: May 10, 2003, 09:50:33 pm »
Contains some fuck-ups.
"shit happens" -robert


Hero
ARTIST: Machinae Supremacy

Transcribed by Hazul


INTRO/INTERLUDE:
A5   A5   A5   G5
A5   A5   A5   G5
A5   G5   F5      F5  E5
A5   G5   F5      F5  E5
A5



Here is the intro in triads
(useless unless you want to make
a classical version of the song)

INTRO TRIADS:
Am   Am   Am   G
Am   Am   Am   G
Am   G   F   F  E7
Am

VERSE:

A5    G5
They try to beat me
D5        C5          G5
but they will not ever defeat me
A5      G5       D5
This time we're on my battlegrounds
A5          G5
I'm gonna win, trust in me
D5             C5    G5
I have come to save this world
A5         G5               F5      G5
and in the end I'll get the grrrl!

INTERLUDE

A5
I've missed it, so twisted
E5
and unsurpassed in my head
F5         C5      G5
This sense of power has awakened in me
A5                                E5  
I feel I could take on the world
a day like this
F5           C5     G5
my rage is brewing like a storm


CHORUS:

A5     G5      F5
   And now the storm has grown
           E5
out of control
A5       G5        F5
   Right here, the voice of anger
       E5
taking tone
A5       G5      F5
   Cause now the fire
                 E5
in our hearts explode
A5      G5        F5
   Ba - by, let's blow this joint
              E5
and build our own

A5


vERSE 2:
A5
Sometimes you just need to
E5
level everything with the ground to
F5
make room for all the things
    C5             G5
you wanted somehow
A5          E5
And I have known it all along
the day is coming
F5                           A5    
when you will reap your evil ways


CHORUS x2

ULTIMATE SOLO (sorry, no chords. Solo is in A)

CHORUS

The End
Roll In Credits
« Last Edit: May 11, 2003, 01:36:14 pm by hazul »

Offline robert

  • Baka
  • Band Member
  • Sr. Member
  • *****
  • Posts: 1634
  • Karma: 230
  • Gender: Male
  • \,,/_(o-O)_,,i,.
    • Machinae Supremacy
Re:Hero Full Chords, except for Solo
« Reply #1 on: May 10, 2003, 10:15:38 pm »
Then maybe this will add to the fun... Here's the lead guitar for the main riff of "Hero"...



E---------------------------------------
B---------------------------------------
G-9--------7-9------7---------7---------
D---7-10-7-----9-10------9-10---10-9-10-
A---------------------10----------------
E---------------------------------------

E----------------------------------------
B----------------------------------------
G-9------9-10-9-7----7---------7---------
D---7-10----------10------9-10---10-9-10-
A----------------------10----------------
E----------------------------------------



Peace, ppl.


It's my job to keep SID elite.

---

<WereVolvo> you can't brain today, you have the dumb?

Offline wisepenguin

  • Newbie
  • *
  • Posts: 74
  • Karma: 10
  • moooooooooo !
    • Web
Re:Hero Full Chords, except for Solo
« Reply #2 on: May 10, 2003, 11:58:15 pm »
cheers :) its cool

Offline Skvate

  • Jr. Member
  • **
  • Posts: 166
  • Karma: 13
  • Gender: Male
  • Mediocre
Re:Hero Full Chords, except for Solo
« Reply #3 on: May 11, 2003, 03:11:27 pm »
heres that 2nd half of the solo... 2 guitars.
TP for tremolo picking(3 fast picks).

 Gtr I
                    TP          TPTPTP                    TP                 TP
|-------------------------------------|----------------------------------------|
|-------------------------------------|--------------------------------------8-|
|--------------------------7----------|--------------------------7-9-9-9-7-9---|
|-7-10-9-7-7-10-9-7-7-9-10---10-9-6---|-7-10-9-7-7-10-9-7-7-9-10---------------|
|-----------------------------------7-|----------------------------------------|
|-------------------------------------|----------------------------------------|
  Gtr I
                    TP          TPTPTP
|-----------------------------------7-|
|---------------------------------8---|
|--------------------------7----9-----|
|-7-10-9-7-7-10-9-7-7-9-10---10-------|
|-------------------------------------|
|-------------------------------------|

|---------------------------------------------------------------|
|---------------------------------------------------------------|
|--------------------------7-----------------------9----9-9S14--|
|-7-10-9-7-7-10-9-7-7-9-10---10-10-10-9-10--7h9h10---10---------|
|---------------------------------------------------------------|
|---------------------------------------------------------------|
  Gtr II
                         TP           TPTP TP
|--------------------------------------------|
|--------------------------------------------|
|----9----------9-------------9-10-9---------|
|-10---12-10-10---12-10-10-12--------12-9----|
|-----------------------------------------11-|
|--------------------------------------------|
                           TP
|-----------------------------------------------------------|
|-----------------------------------------------------------|
|----14----------14-------------14-16-14-------------17b19r=|
|-15----17-15-15----17-15-15-17----------17-17-14-17--------|
|-----------------------------------------------------------|
|-----------------------------------------------------------|
                         TP            TP TP TP
|------------------------------------------12-|
|---------------------------------------12----|
|----9----------9-------------9-10-9-12-------|
|-10---12-10-10---12-10-10-12-----------------|
|---------------------------------------------|
|---------------------------------------------|

|-----------------------------------------------------|
|-----------------------------------------------------|
|----14----------14-------------14-16-17-17-17-16-17--|
|-15----17-15-15----17-15-15-17-----------------------|
|-----------------------------------------------------|
|-----------------------------------------------------|

ending of guitar 2... pretty fast.
|-------------------15----------------------|
|----------15-17-18----18-17-15-17-18-------|
|-14-16-17----------------------------14----|
|-------------------------------------------|
|-------------------------------------------|
|-------------------------------------------|
« Last Edit: May 11, 2003, 03:45:47 pm by Skvate »
Lifeless I sail through these ironic fashions, dressed in the flesh of the jokers passions. On the uttermost brink of madness I stroll, and the rise of insanity as my most precious goal. Tricking the trail of my long lost obscurity, I gather me inside the artifice of eternity....