Author Topic: Rise Tab (Stuck - Update 07/20/2009)  (Read 3084 times)

0 Members and 1 Guest are viewing this topic.

Offline steamx

  • Newbie
  • *
  • Posts: 1
  • Karma: 0
Rise Tab (Stuck - Update 07/20/2009)
« on: July 18, 2009, 03:18:15 pm »
Hey guys. Today i started to listen so this song, because i love it and well there was no tab in this forum or at least the downloads weren't available (or im just stupid...whatever).
If you want to help out, just post a comment!

Scale could be D-major
Tuning is Standard (i know they use E and B guitars)

Opening/Intro (after SID)
e|-----|------------------|-----9---10-12-10-9-|-----------------------|---|
b|-7*--|-----7---8-10-8-7-|---8---8------------|-12----------8-10-8-10-|---|
g|---9-|---7---7----------|-9------------------|----11----11-----------|-9-|
d|-----|-9----------------|--------------------|-------12--------------|---|
a|-----|------------------|--------------------|-----------------------|---|
e|-----|------------------|--------------------|-----------------------|---|
*some fade-in

e|------------------|-----9---10-12-10h12p10-9-|---------------------------|---|
b|-----7---8-10-8-7-|---8---8------------------|-12----------8-10-8h10p8-7-|---|
g|---7---7----------|-9------------------------|----11----11---------------|---|
d|-9----------------|--------------------------|-------12------------------|-9-|
a|------------------|--------------------------|---------------------------|---|
e|------------------|--------------------------|---------------------------|---|


Changes:
Slowed down (120>110)
Guitar 1 fade-in i finally like
New .gp5 Tab @ mediafire

Changes:
7th bar part changed on tact 3 and so on
Old .gp5 Tab @ mediafire

edit: Well, i'm stuck. One reason is the rhythm of the guitar in the foreground. The other one is that i don't know if it's the SID or a second guitar in the background, playing these high pitched stuff.
« Last Edit: July 20, 2009, 01:51:59 pm by steamx »

Offline Shalinar

  • Jr. Member
  • **
  • Posts: 119
  • Karma: 0
  • Gender: Male
Re: Rise Tab
« Reply #1 on: September 27, 2009, 08:04:35 pm »