Author Topic: corrected tabs  (Read 2530 times)

0 Members and 1 Guest are viewing this topic.

Offline LymphoCite_T

  • SiteDeveloper
  • Full Member
  • ****
  • Posts: 512
  • Karma: 3
  • Gender: Male
    • visit me at youtube!
corrected tabs
« on: August 06, 2008, 08:21:25 pm »
:):):)

Offline LymphoCite_T

  • SiteDeveloper
  • Full Member
  • ****
  • Posts: 512
  • Karma: 3
  • Gender: Male
    • visit me at youtube!
Re: corrected tabs
« Reply #1 on: October 05, 2008, 09:08:27 pm »
super steve tab:

Track 2
131   132   133
              ^                 
              W                 
-----|-----|-------------------|
-----|-----|--5----------------|
-----|-----|--5----------------|
-----|-----|--5----------------|
-----|-----|--3----------------|
-----|-----|-------------------|


  W                   W                 
-------------------|--8----------------|
--6----------------|--8----------------|
--5----------------|--5----------------|
--3----------------|--5----------------|
--3----------------|-------------------|
-------------------|-------------------|


                      ^                 
  W                   W                 
--L----------------|-------------------|
--L----------------|--5----------------|
--L----------------|--5----------------|
--L----------------|--5----------------|
-------------------|--3----------------|
-------------------|-------------------|


  W                   W                 
-------------------|--8----------------|
--6----------------|--8----------------|
--5----------------|--5----------------|
--3----------------|--5----------------|
--3----------------|-------------------|
-------------------|-------------------|


  W                   E  E  H.           
--L----------------|---------------------|
--L----------------|---------------------|
--L----------------|--2------------------|
--L----------------|--2------------------|
-------------------|--0------------------|
-------------------|---------------------|



:):):)