Author Topic: Masquerade Solo - Done  (Read 2334 times)

0 Members and 1 Guest are viewing this topic.

Offline Blue Devil

  • Jr. Member
  • **
  • Posts: 210
  • Karma: 15
  • Gender: Male
  • Official MaSu Tab Maker
Masquerade Solo - Done
« on: June 09, 2007, 10:32:27 pm »
http://zenixstudios.com:8080/2007/6/9/gp4/m/Masquerade.gp4

It should sync up perfectly with the actual song too

Code: [Select]
Track 1
      |--3--|                             |--3--|       
      S  S  S  S S  S S  S S  S  S  S  S  S  S  S S  S 
E||----------------------------------------------------|
B||--12-13-12-10-0-10-8----8-10-12-10------------------|
G||---------------------11------------12-11-12-11-9----|
D||-------------------------------------------------12-|
A||----------------------------------------------------|
E||----------------------------------------------------|


  E  E  E  E  E  E  E  S S    E  S S E  E  S S E  E   E   
---------------------------|-----------------------------|
--8--7--8--7--8--7--8------|--8------8--7------8--7--12--|
--9--7--9--7--9--7--9--7-9-|--9--7-9-9--9--7-9-9--9---9--|
---------------------------|-----------------------------|
---------------------------|-----------------------------|
---------------------------|-----------------------------|


                                                                      PM PM 
   E   E   E   E   E   E   E   S  S     E  S  S  E   E   S  S  E   E  S  S   
---0---0---0---0---0---0---0---0----|---------------------------------------|
--12--10--12--10--12--10--12--10-10-|--13-------13--13--13-13-13--13--0--0--|
------------------------------------|------0-12-12--12--11-11-11--11--------|
------------------------------------|---------------------------------------|
------------------------------------|---------------------------------------|
------------------------------------|---------------------------------------|


                                                       |---3---|   |-3-|       
   E  E   E   E   E   E   E   S  S     E   E   E   E   E   E   E   E   S  E   
---------------------12------10-13-|------10------13------12------10----------|
--12-----15--18--12------12--------|--11------11------11------11------11-12b--|
------0----------------------------|------------------------------------------|
-----------------------------------|------------------------------------------|
-----------------------------------|------------------------------------------|
-----------------------------------|------------------------------------------|


                                    |---3---|   |---3---|             
  Q     S  S  S  S  Q.       E      E   E   E   E   E   E   H         
--------------------------------|----------14--12--15------17b--------|
--Lb----L-15-14-12--------------|--13--12--------------13-------------|
-------------------12b------12--|-------------------------------------|
--------------------------------|-------------------------------------|
--------------------------------|-------------------------------------|
--------------------------------|-------------------------------------|


                                    |--3--|               
   S  S  S  T T  S  S  S  T T  S S  S  S  S  S  S  S  T T 
--19-19-19-15-0-19-19-19-15-0-19---17-15----19-19-19-15-0-|
---------------------------------0-------17---------------|
----------------------------------------------------------|
----------------------------------------------------------|
----------------------------------------------------------|
----------------------------------------------------------|


   |--|            |--|                               
   S  E   T  T  S  S  E   T  S. E   S  S     E   E   
--19-19-----------19-19--------19--------17g19-------|
---0--0--20-17-20--0--0--20-20-----20-20--------20\--|
-----------------------------------------------------|
-----------------------------------------------------|
-----------------------------------------------------|
-----------------------------------------------------|


   |---3---|   |---3---|   |---3---|   |---3---|   
   E   E   E   E   E   E   E   E   E   E   E   E   
--15------15------15--12--14------14------14------|
------12------12-----------0-------0-------0------|
------------------------------16------16------16--|
--------------------------------------------------|
--------------------------------------------------|
--------------------------------------------------|


   |---3---|   |---3---|   |----3---|   |---3--|   
   E   E   E   E   E   E   E    E   E   E   E  E   
---0-------0-------0------------------------------|
--17------17------17-----------15----------13-----|
------16------16------16---L\------12--11------9--|
--------------------------------------------------|
--------------------------------------------------|
--------------------------------------------------|


  |---3--|              |-3|                                       
  E   E  E  Q    E  S S E  Q       S S S S S S S S S S S S S S E   
--------------------------------|---------------------------------|
-----12-------------------------|---------------------------------|
--9------9--7----L--9-7----7----|---------------------------------|
------------------------9-------|--7-5-----5----------------------|
--------------------------------|------7-5---7-5---7-5---5--------|
--------------------------------|----------------7-----7---7-5-3--|


             |--3--|  |---3--|     |---3--|   |--3--|         |--3--|   
  Q.      E  E  E  E  E  E   E     E  E   E   E  E  E  Q      Q     E   
--------------------------------|--------------------------------------|
--------------------------------|--------12--10--7--8--7b~----L\----8--|
----------------------7-----12--|--8--9--------------------------------|
----------------9--7-----7------|--------------------------------------|
--9------10--7------------------|--------------------------------------|
--------------------------------|--------------------------------------|


  |--3--|                                                             
  E  E  E  S S S S S S S S S S S S    S S S S S S S S S S  S S S  E.   
-----------------------------------|----------------------------------|
--7--5--8--7-5---8-7-5-------------|----------------------------------|
---------------7-------7-4---------|----------------------------------|
---------------------------7-5-----|------------------9-7-------------|
-------------------------------7-5-|--7-8-7-5-7-----------10-9-7------|
-----------------------------------|------------8-7-5------------10---|


  W                 
-------------------||
-------------------||
-------------------||
-------------------||
-------------------||
--5----------------||




Offline H

  • Full Member
  • ***
  • Posts: 545
  • Karma: 13
  • Gender: Male
  • Gamer. Guitarist. Slacker.
    • My site
Re: Masquerade Solo - Done
« Reply #1 on: June 10, 2007, 09:49:25 am »
Just recently got GP, so I can check this out :P

Gotta say, this is damn close.  :o

A lot closer than I've been, that's for sure.

Good call :D


EDIT: Here, tweeked a few areas for ya.

http://www.geocities.com/sykodx469/Masquerade2.gp5
« Last Edit: June 10, 2007, 10:31:06 am by H »
[Comfort the disturbed. Disturb the comfortable]
Crownus

Offline Blue Devil

  • Jr. Member
  • **
  • Posts: 210
  • Karma: 15
  • Gender: Male
  • Official MaSu Tab Maker
Re: Masquerade Solo - Done
« Reply #2 on: June 10, 2007, 10:21:07 pm »
Thanks for the tweaks on it, H ;D