Author Topic: Sidology Episode 1 Solo - Complete  (Read 4463 times)

0 Members and 1 Guest are viewing this topic.

Offline Blue Devil

  • Jr. Member
  • **
  • Posts: 210
  • Karma: 15
  • Gender: Male
  • Official MaSu Tab Maker
Sidology Episode 1 Solo - Complete
« on: February 03, 2007, 11:11:01 am »
If you need it in .gp4 format, or text, feel free to let me know.

http://rapidshare.com/files/14671002/Sid_Solo.gp5.html

Offline Jack Lupino

  • Worst Dude
  • Machinae Prime
  • *****
  • Posts: 12941
  • Karma: 62
  • Gender: Female
Re: Sidology Episode 1 Solo - Complete
« Reply #1 on: February 03, 2007, 07:12:40 pm »
I actually needed the sid 3 one but oh well ;P lemme see

Offline Blue Devil

  • Jr. Member
  • **
  • Posts: 210
  • Karma: 15
  • Gender: Male
  • Official MaSu Tab Maker
Re: Sidology Episode 1 Solo - Complete
« Reply #2 on: February 03, 2007, 08:36:33 pm »
I actually needed the sid 3 one but oh well ;P lemme see


I'm 99% sure that I've already done that one.

EDIT: Yep, I've definitely already done the Apex Ultima solo.
GP 5: http://rapidshare.com/files/5352300/apex.gp5.html
GP 4: http://rapidshare.com/files/5352432/apex.gp4.html
« Last Edit: February 03, 2007, 08:43:42 pm by Blue Devil »

Offline refic

  • mr. banjoles
  • Administrator
  • Machinae Prime
  • *****
  • Posts: I am a geek!!
  • Karma: 62
  • Gender: Male
  • mr. banjoles
Re: Sidology Episode 1 Solo - Complete
« Reply #3 on: February 07, 2007, 12:05:20 pm »
Any chance of getting these as .txt or something similar since there's no Linux version of GP (afaik)?

Offline Jack Lupino

  • Worst Dude
  • Machinae Prime
  • *****
  • Posts: 12941
  • Karma: 62
  • Gender: Female
Re: Sidology Episode 1 Solo - Complete
« Reply #4 on: February 08, 2007, 01:57:53 am »
Isn't there something like, power tab for linux ?

Offline Blue Devil

  • Jr. Member
  • **
  • Posts: 210
  • Karma: 15
  • Gender: Male
  • Official MaSu Tab Maker
Re: Sidology Episode 1 Solo - Complete
« Reply #5 on: February 08, 2007, 05:58:42 am »
Any chance of getting these as .txt or something similar since there's no Linux version of GP (afaik)?

http://zenixstudios.com/f_new/f/apex620.txt
That's for the entire solo track thing guy thing. Yeah...
Here's the big solo though, as a preview.

Code: [Select]
-------------------|-------14-14-14-------14-14-14-------14-14-|
-------------------|--17b------------17b------------17b--------|
-------------------|-------------------------------------------|
-------------------|-------------------------------------------|
-------------------|-------------------------------------------|
-------------------|-------------------------------------------|


   E   S  S  S  S  E  E   S  E   E.   
--14--14-14-14-14-14-----14-16--14---|
----------------------0--------------|
-------------------------------------|
-------------------------------------|
-------------------------------------|
-------------------------------------|


   S  S  S  S  S  S  E   S  S  S  S  S  E   S 
--14-12-----------------12--------------------|
--------12-15-12----12-----12----12-----------|
-----------------14-----------14----13--------|
---------------------------------------14--14-|
----------------------------------------------|
----------------------------------------------|


   E   S  S  S  S  S  S  S  S  S  S  S  S  S  S 
------------------------------------------------|
------------------------------------------------|
---------14-------------------------17-16-------|
--16--16----16-14-16-14----14-16-14-------19-16-|
------------------------16----------------------|
------------------------------------------------|


   E   S  S  S  S  S  S  S  S  S  S  S  S  E   
----------------------------------------------|
----------------------------------------------|
----------------------------------------------|
--16--16-16-16-16-16-16-16-16-16-16-16-16-18--|
----------------------------------------------|
----------------------------------------------|


   S  S  S  S  E   S  S  S  S  E    E   E   
-------------------------------------------|
-------------------------------------------|
-------------------------------------------|
--14-14-14-14-16---------------------------|
------------------16-16-16-16-18S--14--14--|
-------------------------------------------|


   |-----3-----|     |-----3-----|                             
   Q     Q     Q     Q     Q     Q        W                   
--------------------------------------|--17-------------------|
--14----12----17----14----12----17----|--19pbr----------------|
--14----13----16----14----13----16----|-----------------------|
--------------------------------------|-----------------------|
--------------------------------------|-----------------------|
--------------------------------------|-----------------------|


                                         |--3--| 
   E   S  S  S  S  S  S  E   S  S  S  S  S  S  S 
--19--17----16----14----14-----------------------|
---------17----17----17-----17----15-14-------14-|
-------------------------------16-------16-14----|
-------------------------------------------------|
-------------------------------------------------|
-------------------------------------------------|


                              |--3--|             
   S  S  S  T  T  S  S  S  S  S  S  S  S  S Q     
-------------------------------------------------|
--15---------------------------------------------|
-----18-17-17-14-17-16----------------14---------|
-----------------------19-16-16-14-16----16-L----|
-------------------------------------------------|
-------------------------------------------------|


               |-----3-----|                                             
   Q.     S  S Q     Q     Q        S S  S S  S S  S S  S S  S S  E  E   
--------------------------------|---------------------------------------|
--------------------------------|---------------------------------------|
----------9-11-9----------------|--11-9---------9-----------------------|
--12----------------12----11----|-------11-9-11---11-9-11-9----9--------|
--------------------------------|---------------------------12---12--9--|
--------------------------------|---------------------------------------|


   H           Q    E   E     H           H         
---------------------------|-----------------------|
--11brb--------L----L--10--|--9brb-----------------|
---------------------------|--------------6--------|
---------------------------|-----------------------|
---------------------------|-----------------------|
---------------------------|-----------------------|


  S S S S E  S  S  E  E  Q       S S S S S S S S S  S S S S S S S 
------------------------------|-----------------------------------|
------------------------------|-------------------------------5-6-|
------------------------------|-----------------------------6-----|
--9-7---7---------------------|----------------7-9-11-9-8-9-------|
------9---9--7h-8h-9-----7----|--------7-9-7-L--------------------|
----------------------7-------|--7-9-9----------------------------|


                 
  S\                                         
  H                                             
-------------------------------|---------------|
--7----------------------------|---------------|
-------------------------------|---------------|
-------------------------------|---------------|
-------------------------------|---------------|
-------------------------------|---------------|

Offline Jack Lupino

  • Worst Dude
  • Machinae Prime
  • *****
  • Posts: 12941
  • Karma: 62
  • Gender: Female
Re: Sidology Episode 1 Solo - Complete
« Reply #6 on: February 09, 2007, 03:55:28 am »
Sexy. Much karma to yoo

Offline LeadFrazer

  • Newbie
  • *
  • Posts: 17
  • Karma: 0
  • EEE! TUBESCREAMER!
Re: Sidology Episode 1 Solo - Complete
« Reply #7 on: February 27, 2007, 01:25:11 am »
Good Like Oreos :)
IFrazz.