Author Topic: Arpeggio Sweep Tab Thread (Guitar)  (Read 10800 times)

0 Members and 1 Guest are viewing this topic.

Offline evilpenguin

  • Newbie
  • *
  • Posts: 23
  • Karma: 1
  • Gender: Male
  • PP - Penguin Power!
    • evilpenguin.dk
Re: Arpeggio Sweep Tab Thread (Guitar)
« Reply #30 on: December 28, 2006, 11:40:26 pm »
Heh...! There we go, much easier reading for everybody!  ;D
Check out my music:

www.evilpenguin.dk

-And my band:

www.leakestwink.dk

Offline Jack Lupino

  • Worst Dude
  • Machinae Prime
  • *****
  • Posts: 12940
  • Karma: 62
  • Gender: Female
Re: Arpeggio Sweep Tab Thread (Guitar)
« Reply #31 on: December 28, 2006, 11:44:06 pm »
Im too tired.

Offline Aphex

  • Jr. Member
  • **
  • Posts: 212
  • Karma: 10
  • Gender: Male
Re: Arpeggio Sweep Tab Thread (Guitar)
« Reply #32 on: January 03, 2007, 11:49:24 pm »
Another one I just recorded


---------- ---------15--19p--15------------------|
----------------17---------------17--------------|
------------16-----------------------16----------|
--------17-------------------------------17------|
----19---------------------------------------19--|
-------------------------------------------------|
                                             

--------------------14--17p--14------------------|
----------------15---------------15--------------|
------------14-----------------------14----------|
--------16-------------------------------16------|
----17---------------------------------------17--|
-------------------------------------------------|
                                             

--------------------12--15p--12------------------|
----------------13---------------13--------------|
------------12-----------------------12----------|
--------14-------------------------------14------|
----15---------------------------------------15--|
-------------------------------------------------|


(some little variations in the recorded clip)

You can hear it here (270kb)  :P

Offline slippy0

  • Full Member
  • ***
  • Posts: 484
  • Karma: 24
  • Gender: Male
  • ┐('~`ï¼›)┌
Re: Arpeggio Sweep Tab Thread (Guitar)
« Reply #33 on: January 04, 2007, 09:21:54 am »
Wow, I found these a huge help. Especially because I happened to find these just as I was starting to learn sweep picking! (As in I had just looked up the word and had turned on the internet to find some videos and tabs, and I saw this).

Thanks!
See why Massachusetts rocks? We have Slippy <.<

Offline Fallout

  • Machinae Prime
  • *****
  • Posts: 6430
  • Karma: 71
  • Gender: Male
Re: Arpeggio Sweep Tab Thread (Guitar)
« Reply #34 on: January 13, 2007, 08:19:14 am »
I've been learning this simple 4 string sweep, just practiced it with a metronome, i can get upto 208bpm :D


  E |-----------12-12----------|
  B |--------13-------13-------|
  G |-----14------------14-----|
  D |--15------------------15--|
  A |--------------------------|
  E |--------------------------|


I also learnt another one, which is the exact opposite of this.


  E |-----------15-15----------|
  B |--------14-------14-------|
  G |-----13------------13-----|
  D |--12------------------12--|
  A |--------------------------|
  E |--------------------------|


I can join these two together, too.
« Last Edit: January 13, 2007, 08:24:39 am by Fallout »

Offline Ant

  • Donated so refic can buy beer
  • Community Supporter
  • Machinae Prime
  • ******
  • Posts: 4372
  • Karma: 40
  • Gender: Male
  • It's personal text.
Re: Arpeggio Sweep Tab Thread (Guitar)
« Reply #35 on: January 13, 2007, 08:21:19 am »
recsoritneverhappened
But if one day we meet together while I'm drunk, I promise you to draw a big group sex picture including a lot of forumites. :D

Ich bin ein Berliner, Frankfurter, Hamburger und Bonner

Offline Fallout

  • Machinae Prime
  • *****
  • Posts: 6430
  • Karma: 71
  • Gender: Male
Re: Arpeggio Sweep Tab Thread (Guitar)
« Reply #36 on: January 13, 2007, 08:23:40 am »
recsoritneverhappened

It's too late. I've already had my brother shouting at me through the wall :/

This is extremely usefull stuff.

Ok, You asked for recordings, and I'll torture you with recordings.

http://media.putfile.com/sweeping-47
« Last Edit: January 13, 2007, 10:06:52 pm by Fallout »

Offline Jack Lupino

  • Worst Dude
  • Machinae Prime
  • *****
  • Posts: 12940
  • Karma: 62
  • Gender: Female
Re: Arpeggio Sweep Tab Thread (Guitar)
« Reply #37 on: January 14, 2007, 09:08:06 pm »
Mehh ill upload some sweeping aswell.