Author Topic: Arpeggio Sweep Tab Thread (Guitar)  (Read 12232 times)

0 Members and 1 Guest are viewing this topic.

Offline Aphex

  • Jr. Member
  • **
  • Posts: 212
  • Karma: 10
  • Gender: Male
Re: Arpeggio Sweep Tab Thread (Guitar)
« Reply #15 on: December 11, 2006, 01:42:57 am »
hihi
0:42 says my clock
And I'm still on amp :((

http://rapidshare.com/files/6948693/random_sweep.wav.html (220 kb)

some random thingie I just recorded

Offline evilpenguin

  • Newbie
  • *
  • Posts: 23
  • Karma: 1
  • Gender: Male
  • PP - Penguin Power!
    • evilpenguin.dk
Re: Arpeggio Sweep Tab Thread (Guitar)
« Reply #16 on: December 12, 2006, 12:34:46 am »
Ok, here we go! I tried to change the extension to .jpg as Lysix suggested, do remember to change it back to .ptb before you open it!  ;D -Oh, and you need Powertab editor to open the files.

Digit Zero is a new tune I recorded recently, it has a pretty wicked sweeping sequence which is the one I've tabbed out here.

The sweepsheet is just a mess of random sweeping patterns i made for a student. If you play it in powertab it'll just run you through all of the patterns one after the other, and none of it will make sense. It works like this: with every tempo change in the tab there's a new pattern, that's how you should divide the exercises. All of the patterns presented here are pretty basic exercises that should work well as a sort of introduction to the easier side of the sweeping techniques.

Enjoy!

 :)

-EP
Check out my music:

www.evilpenguin.dk

-And my band:

www.leakestwink.dk

Offline evilpenguin

  • Newbie
  • *
  • Posts: 23
  • Karma: 1
  • Gender: Male
  • PP - Penguin Power!
    • evilpenguin.dk
Re: Arpeggio Sweep Tab Thread (Guitar)
« Reply #17 on: December 12, 2006, 01:06:44 am »
Bleh... Didn't work.  :P
Instead, here's a rough text rendition of the Digit Zero tab. As you may notice, it has a few of those good old hammer-on/pull-off stunts, the rest of the notes are to be picked sweep picking style. For instance, you're supposed to start the whole thing with a down stroke (16) then an up stroke (12) then another up stroke (14) etc. etc. If you play it that way the picking pattern will pretty much reveal it self as you go on. Have fun!  ;)

 Q=137
 4/4
  Gtr I
 
|-16-12--------------------------------------|
|-------14------------------9h14p9-----------|
|----------13-------------9--------9---------|
|-------------14-------11------------11------|
|----------------16-11------------------11---|
|------------------------------------------9-|


 
|-----------------------------------------------|
|-----------------------------------11-14-------|
|---------------------9-12-------12-------12----|
|-------8-11-------11------11-14-------------11-|
|----10------10-13------------------------------|
|-12--------------------------------------------|


   
|-18-15-------------------------------------------|
|-------16-20-16----------------------------------|
|----------------15-20-15-------------------12-15-|
|-------------------------17-20-17-------13-------|
|----------------------------------18-13----------|
|-------------------------------------------------|



|--------------------------------------------------|
|----------------------------------12-15-----------|
|-16-13-------------10-13-------13-------13--------|
|-------15-------12-------12-15-------------12-15--|
|----------17-14-----------------------------------|
|--------------------------------------------------|


 
|-------12h16p12----------------------------------|
|----12----------12-------------------------------|
|-13----------------13-16-13----------------------|
|----------------------------14-18-14-------------|
|-------------------------------------14----------|
|----------------------------------------16-12-16-|



|--------------------------------------------------|
|-------------------------------------14-17--------|
|----------------------12-15-------15-------15-----|
|-------11-14-------14-------14-17-------------14--|
|----13-------13-16--------------------------------|
|-15-----------------------------------------------|


 
|-15p11----16p11----15p11----16p11----15p11-16p11-|
|-------14-------14-------14-------14-------------|
|-------------------------------------------------|
|-------------------------------------------------|
|-------------------------------------------------|
|-------------------------------------------------|


                                       
|-15p11----16p11----18p11----16p11----15----*|
|-------14-------14-------14-------14-------*|
|-------------------------------------------*|
|-------------------------------------------*|
|-------------------------------------------*|
|-------------------------------------------*|
« Last Edit: December 28, 2006, 11:38:55 pm by evilpenguin »
Check out my music:

www.evilpenguin.dk

-And my band:

www.leakestwink.dk

Offline evilpenguin

  • Newbie
  • *
  • Posts: 23
  • Karma: 1
  • Gender: Male
  • PP - Penguin Power!
    • evilpenguin.dk
Re: Arpeggio Sweep Tab Thread (Guitar)
« Reply #18 on: December 12, 2006, 01:12:57 am »
-And here's the sweepsheet. Remember, the various patterns are to be divided wherever a tempo change is marked. The last one (Q=105) is definitely the hardest one to play, and It's really a prerequisite of the Digit Zero-thing. Knock yourself out!!  ;D

 Q=120
 4/4
  Gtr I
   |--3--|  |--3--|  |--3--|  |--3--|    |--3--|  |--3--|  |--3--|  |--3--|
   
|-------------------------------------|-------------------------------------|
|----------------12h17p12-------------|----------------12-17-12-------------|
|-------------12----------12----------|-------------12----------12----------|
|----------14----------------14-------|----------14----------------14-------|
|-------14----------------------14----|-------14----------------------14----|
|-12h15----------------------------15-|-12-15----------------------------15-|


   |--3--|  |--3--|  |--3--|  |--3--|
|-------------------------------------|------------*|
|----------------12-17-12-------------|------------*|
|-------------12----------12----------|------------*|
|----------14----------------14-------|------------*|
|-------14----------------------14----|------------*|
|-12-15----------------------------15-|-12---------*|


  Q=180
   
|-------------------------------------------------|-------------------------------------------------|
|----------------------12h17p12-------------------|----------------------12-17-12-------------------
|-------------------12----------12----------------|-------------------12----------12----------------|
|----------------14----------------14-------------|----------------14----------------14-------------|
|-------------14----------------------14----------|-------------14----------------------14----------|
|-12h15p12h15----------------------------15p12h15p|=12h15p12h15------------------------15-12-15|

   
|-------------------------------------------------|------------*|
|----------------------12-17-12-------------------|------------*|
|-------------------12----------12----------------|------------*|
|----------------14----------------14-------------|------------*|
|-------------14----------------------14----------|------------*|
|-12-15-12-15----------------------------15-12-15-|-12---------*|


  Q=216
   |--3--|  |--3--|  |--3--|  |--3--|
   
|-------------------------------------|
|-12-11-12-11-------------12h16p12----|
|-------------11-------12----------12-|
|----------------14-13----------------|
|-------------------------------------|
|-------------------------------------|


   |--3--|  |--3--|  |--3--|  |--3--|
   
|-------------------------------------|------------*|
|----------------10h14p10-------------|------------*|
|-------------10----------10----------|------------*|
|-13-------11----------------11-------|------------*|
|----14-12----------------------12----|------------*|
|----------------------------------13-|-12---------*|


  Q=105
  |-3-| |-3-| |-3-| |-3-|   |-3-| |-3-| |-3-| |-3-|
 
|-------------------------|-------------------------|
|-------------------------|-5-8---------5-8---------|
|---------------3-6-----6-|-----6-----6-----6-------|
|-----2-5-----5-----5-8---|-------5-8---------5-----|
|---4-----4-7-------------|---------------------7---|
|-6-----------------------|-----------------------9-|


  |-3-| |-3-| |-3-| |-3--|   |-3--| |-3--| |-3--| |-3--|
 
|--------------------------|--------------------------------|
|--------------------------|-7-10----------7-10-------------|
|---------------5-8------8-|------8------8------8-----------|
|-----4-7-----7-----7-10---|--------7-10----------7---------|
|---6-----6-9--------------|------------------------9-------|
|-8------------------------|--------------------------11----|


   |-3-| |-3--| |-3--| |--3--|   |--3--| |--3--| |--3--| |--3--|
   
|------------------------------|---------------------------------|
|------------------------------|-9-12------------9-12------------|
|-----------------7-10------10-|------10------10------10---------|
|------6-9------9------9-12----|---------9-12------------9-------|
|----8-----8-11----------------|---------------------------11----|
|-10---------------------------|------------------------------13-|


   |-3--|  |--3--|  |-3--|  |--3--|    |--3--|  |--3--|  |--3--|  |--3--|
   
|-----------------------------------|----------------------------------------*|
|-----------------------------------|-11-14-------------11-14----------------*|
|---------------------9-12-------12-|-------12-------12-------12-------------*|
|-------8-11-------11------11-14----|----------11-14-------------11----------*|
|----10------10-13------------------|-------------------------------13-------*|
|-12--------------------------------|----------------------------------15----*|
« Last Edit: December 28, 2006, 11:39:23 pm by evilpenguin »
Check out my music:

www.evilpenguin.dk

-And my band:

www.leakestwink.dk

Offline Aphex

  • Jr. Member
  • **
  • Posts: 212
  • Karma: 10
  • Gender: Male
Re: Arpeggio Sweep Tab Thread (Guitar)
« Reply #19 on: December 12, 2006, 10:53:50 am »
daamn  :o
winter holidays comming soon
I'll have more time 4 that. yaay

in the mean time, can some1 import that in guitar pro
and provide a tab ? ^^

I've got problems w/ importing the text :/


Offline Jack Lupino

  • Worst Dude
  • Machinae Prime
  • *****
  • Posts: 12941
  • Karma: 62
  • Gender: Female
Re: Arpeggio Sweep Tab Thread (Guitar)
« Reply #20 on: December 12, 2006, 09:16:59 pm »
Wow, you guys are giving out presents early this year !

Thanks !!! ;D

Offline Jack Lupino

  • Worst Dude
  • Machinae Prime
  • *****
  • Posts: 12941
  • Karma: 62
  • Gender: Female
Re: Arpeggio Sweep Tab Thread (Guitar)
« Reply #21 on: December 18, 2006, 08:38:48 pm »

Offline Aphex

  • Jr. Member
  • **
  • Posts: 212
  • Karma: 10
  • Gender: Male
Re: Arpeggio Sweep Tab Thread (Guitar)
« Reply #22 on: December 24, 2006, 02:34:49 pm »
hihi, sweet.  :P

Offline Fallout

  • Machinae Prime
  • *****
  • Posts: 6430
  • Karma: 71
  • Gender: Male
Re: Arpeggio Sweep Tab Thread (Guitar)
« Reply #23 on: December 24, 2006, 05:50:25 pm »
You guys know you can use Teletype to type out tabs, those are a little messy. just press the button on the text formatting bar.

Normal text:

   |--3--|  |--3--|  |--3--|  |--3--|
|-------------------------------------|------------*|
|----------------12-17-12-------------|------------*|
|-------------12----------12----------|------------*|
|----------14----------------14-------|------------*|
|-------14----------------------14----|------------*|
|-12-15----------------------------15-|-12---------*|

Teletype:

   |--3--|  |--3--|  |--3--|  |--3--|
|-------------------------------------|------------*|
|----------------12-17-12-------------|------------*|
|-------------12----------12----------|------------*|
|----------14----------------14-------|------------*|
|-------14----------------------14----|------------*|
|-12-15----------------------------15-|-12---------*|

Offline Aphex

  • Jr. Member
  • **
  • Posts: 212
  • Karma: 10
  • Gender: Male
Re: Arpeggio Sweep Tab Thread (Guitar)
« Reply #24 on: December 24, 2006, 06:08:17 pm »
yeah, sry. I teletype edited mines ^^

Offline Fallout

  • Machinae Prime
  • *****
  • Posts: 6430
  • Karma: 71
  • Gender: Male
Re: Arpeggio Sweep Tab Thread (Guitar)
« Reply #25 on: December 24, 2006, 06:16:31 pm »
yeah, sry. I teletype edited mines ^^
:) pld.

* Fallout pokes evilpenguin

Offline evilpenguin

  • Newbie
  • *
  • Posts: 23
  • Karma: 1
  • Gender: Male
  • PP - Penguin Power!
    • evilpenguin.dk
Re: Arpeggio Sweep Tab Thread (Guitar)
« Reply #26 on: December 28, 2006, 12:35:45 am »
:) pld.

* Fallout pokes evilpenguin

LOL! Thanks for pointing that out, I'll try and use that function next time!  ;D
Check out my music:

www.evilpenguin.dk

-And my band:

www.leakestwink.dk

Offline Aphex

  • Jr. Member
  • **
  • Posts: 212
  • Karma: 10
  • Gender: Male
Re: Arpeggio Sweep Tab Thread (Guitar)
« Reply #27 on: December 28, 2006, 12:41:59 am »
Dude, check it out!



And it workes!   :P

(don't ask 'bout lame arrow  ;D )

Offline Fallout

  • Machinae Prime
  • *****
  • Posts: 6430
  • Karma: 71
  • Gender: Male
Re: Arpeggio Sweep Tab Thread (Guitar)
« Reply #28 on: December 28, 2006, 02:00:47 am »
:) pld.

* Fallout pokes evilpenguin

LOL! Thanks for pointing that out, I'll try and use that function next time!  ;D

Hey no problem man, any time. Just get those posts edited :P

Fr3Ak` - lame arrow? :P
« Last Edit: December 28, 2006, 09:54:51 pm by Fallout »

Offline Aphex

  • Jr. Member
  • **
  • Posts: 212
  • Karma: 10
  • Gender: Male
Re: Arpeggio Sweep Tab Thread (Guitar)
« Reply #29 on: December 28, 2006, 09:22:51 pm »
c/p-ing modify button in irfanview to create arrow ftw  :P