Author Topic: Arpeggio Sweep Tab Thread (Guitar)  (Read 9901 times)

0 Members and 1 Guest are viewing this topic.

Offline Jack Lupino

  • Worst Dude
  • Machinae Prime
  • *****
  • Posts: 12939
  • Karma: 62
  • Gender: Female
Arpeggio Sweep Tab Thread (Guitar)
« on: November 20, 2006, 06:59:04 pm »
Post all your tabs on sweeps here, i'd reckon ill put in the most simple and obvious ones myself.
The goal of this thread is to enrich guitarists with new material and new insights to guitar sweeping.

The 5 String Arpeggio Sweep.


E
A 5-h8--------8-5
D ----7-------7--
G -----7-----7---
B ------6---6----
E --------5------


This is basically a pretty standard sweep, it might be a bit tricky when you're starting to sweep, but after you get it in your muscle memory, it shouldn't be too hard.



The 5 String Arpeggio Sweep with the pinky.


E
A 5-h8-----------8-5
D ----7----------7--
G -----7--------7---
B ------6------6----
E -------5h8p5-----


Okay. This one is a bit harder, because you're using your pinky twice in the sweep. That requires effency and speed somewhat.
Nothing extreme, but with some timing you should be able to pull it off.

The 5 String Arpeggio Sweep with the pinky and the tap.


E
A 5-h8----------------8-5
D ----7---------------7--
G -----7-------------7---
B ------6-----------6----
E -------5h8t12p8p5-----


This one gave me a lot less problems than i expected. The trick with this one is (for me, that is) just sweep over your neck of the guitar, so the distance is shorter. Then from there just keep it slow and start increasing the distance between the tap and the place where you're holding your plectrum when you're sweeping.

NOTE : Tap note may vary.

Ok here are some three string sweeps.


Three String Sweep A


E
A
D
G -----7--------7---
B ------6------6----
E -------5h8p5-----


This one is just basically like the 5 string, but the first 2 strings kept away. And yes, ofcourse you can add a tap, im not going to tab that one out. ;)

Three String Sweep B


E
A
D
G -----5--------7---
B ------6------6----
E -------5h6p5-----

The pink hammer on changed from 6 to 8

Three String Sweep C


E
A
D
G -----5--------5---
B ------6------6----
E -------5h8p5-----


Just play this slowly, i can't do this one reallyyy fast because you need to play

G5 - Index finger
B6 - Middle finger
E5 - Index finger
E8 - Hammer on pink

And go back, so you're using your index finger a LOT.


I know some more, but i'll leave it here.

If someone has questions about a certain sweep, ill be willing to record a vid and explain it.




Offline Fallout

  • Machinae Prime
  • *****
  • Posts: 6430
  • Karma: 71
  • Gender: Male
Re: Arpeggio Sweep Tab Thread (Guitar)
« Reply #1 on: November 20, 2006, 07:01:21 pm »
Awesome dude, I'll have a go at these when I get a guitar..

And I'll fail miserably. :P

Offline Jack Lupino

  • Worst Dude
  • Machinae Prime
  • *****
  • Posts: 12939
  • Karma: 62
  • Gender: Female
Re: Arpeggio Sweep Tab Thread (Guitar)
« Reply #2 on: November 20, 2006, 07:03:49 pm »
I'd suggest you start with Three string sweep A Shaun ;)

Offline H

  • Full Member
  • ***
  • Posts: 545
  • Karma: 13
  • Gender: Male
  • Gamer. Guitarist. Slacker.
    • My site
Re: Arpeggio Sweep Tab Thread (Guitar)
« Reply #3 on: November 20, 2006, 10:55:17 pm »
I think you have your tabs upside-down, Rad ;P


Here's my contribution:

|E---------------|
|B---------------|
|G------7h9p7----|
|D-----9-----9---|
|A-7h10-------10-|
|E---------------|


Pretty basic hammer on/sweep thing, but I like it :)
[Comfort the disturbed. Disturb the comfortable]
Crownus

Offline Aphex

  • Jr. Member
  • **
  • Posts: 212
  • Karma: 10
  • Gender: Male
Re: Arpeggio Sweep Tab Thread (Guitar)
« Reply #4 on: November 21, 2006, 12:18:15 am »
I've been practiceing this for last 2 weeks

      Bm                                               
   
E||-----------------------14--19p--14------------------|
B||-------------------15---------------15--------------|
G||---------------16-----------------------16----------|
D||-----------16-------------------------------16------|
A||--14h--17---------------------------------------17--|
E||----------------------------------------------------|


   Em                                               
 
-----------------------15--19p--15------------------|
-------------------17---------------17--------------|
---------------16-----------------------16----------|
-----------17-------------------------------17------|
--14h--19---------------------------------------19--|
----------------------------------------------------|


   A                                                 

-----------------------12--17p--12------------------|
-------------------14---------------14--------------|
---------------14-----------------------14----------|
-----------14-------------------------------14------|
--12h--16---------------------------------------16--|
----------------------------------------------------|


   D                                                 

-----------------------14--17p--14------------------|
-------------------15---------------15--------------|
---------------14-----------------------14----------|
-----------16-------------------------------16------|
--12h--17---------------------------------------17--|
----------------------------------------------------|


   G                                                 

-----------------------10--15p--10------------------|
-------------------12---------------12--------------|
---------------12-----------------------12----------|
-----------12-------------------------------12------|
--10h--14---------------------------------------14--|
----------------------------------------------------|


  Em                                       

-------------------7--12p--7---------------|
----------------8-------------8------------|
-------------9-------------------9---------|
----------9-------------------------9------|
--7h--10-------------------------------10--|
-------------------------------------------|


  F #                                             
 
----------------------9--14p--9------------------|
------------------11-------------11--------------|
--------------11---------------------11----------|
----------11-----------------------------11------|
--9h--13-------------------------------------13--|
-------------------------------------------------|


   G                        A                       
 
-----------------------10--17p--12------------------|
-------------------12---------------14--------------|
---------------12-----------------------14----------|
-----------12-------------------------------14------|
--10h--14---------------------------------------16--|
----------------------------------------------------|

I'll record it l8tr :)
« Last Edit: December 24, 2006, 06:07:17 pm by Fr3Ak` »

Offline Jack Lupino

  • Worst Dude
  • Machinae Prime
  • *****
  • Posts: 12939
  • Karma: 62
  • Gender: Female
Re: Arpeggio Sweep Tab Thread (Guitar)
« Reply #5 on: November 21, 2006, 01:21:08 am »
Aarhghh when you go from 12 to 17 its fucked ;D

Offline Aphex

  • Jr. Member
  • **
  • Posts: 212
  • Karma: 10
  • Gender: Male
Re: Arpeggio Sweep Tab Thread (Guitar)
« Reply #6 on: November 24, 2006, 12:44:41 am »
recorded from the first take
week and a half of practice
could do better
can do better.
blah, maybe next time
to lazy to re-record ^^

blah


Direct link to file ~ rad
« Last Edit: November 24, 2006, 06:13:41 pm by Radicz0r »

Offline Jack Lupino

  • Worst Dude
  • Machinae Prime
  • *****
  • Posts: 12939
  • Karma: 62
  • Gender: Female
Re: Arpeggio Sweep Tab Thread (Guitar)
« Reply #7 on: November 24, 2006, 06:14:01 pm »
Awesomee dude, im ghonna practise it tonight with some beers !1

Offline Jack Lupino

  • Worst Dude
  • Machinae Prime
  • *****
  • Posts: 12939
  • Karma: 62
  • Gender: Female
Re: Arpeggio Sweep Tab Thread (Guitar)
« Reply #8 on: November 24, 2006, 10:18:22 pm »
Jeuzs, why the fuck do you play it on such high frets

Offline Aphex

  • Jr. Member
  • **
  • Posts: 212
  • Karma: 10
  • Gender: Male
Re: Arpeggio Sweep Tab Thread (Guitar)
« Reply #9 on: November 24, 2006, 11:06:07 pm »
coz it sounds better, and my guitar lets me play it like that ^^
hihihi, just practice, and practice.. You'll feel progress in short time ;)

edit: and yeah
here is one more
this one is easyer

   
E||--------------12--15p--12--------------12------12------|
B||----------13---------------13------13------13------13--|
G||*--14--------------------------14----------------------|
D||*------------------------------------------------------|
A||-------------------------------------------------------|
E||-------------------------------------------------------|



----------13--17p--13----------------------13--17p--|
------15---------------15------15------15-----------|
--16-----------------------16------16---------------|
----------------------------------------------------|
----------------------------------------------------|
----------------------------------------------------|



--15------------------15--15------------------15S--|
------17----------17----------17----------17-------|
----------17--17------------------17--17-----------|
---------------------------------------------------|
---------------------------------------------------|
---------------------------------------------------|



--13------------------13p--12------------------13p--|
------15----------15-----------13----------13-------|
----------16--16-------------------14--14-----------|
----------------------------------------------------|
----------------------------------------------------|
----------------------------------------------------|


--12----------------------12--12-------------------|
------13------13------13----------13----------13h--|
----------14------14------------------14--14-------|
---------------------------------------------------|
---------------------------------------------------|
---------------------------------------------------|


           
------------------13------------------13------------|
--15----------15------15----------15------15--------|
------16--16--------------16--16--------------16S--*|
---------------------------------------------------*|
----------------------------------------------------|
----------------------------------------------------|

have fun ;)
« Last Edit: December 24, 2006, 06:07:33 pm by Fr3Ak` »

Offline limBer

  • Newbie
  • *
  • Posts: 20
  • Karma: -1
  • Gender: Male
Re: Arpeggio Sweep Tab Thread (Guitar)
« Reply #10 on: December 07, 2006, 09:27:01 am »
freak thats awesome, is there a name to that song or did you just make it up urself?

Offline evilpenguin

  • Newbie
  • *
  • Posts: 23
  • Karma: 1
  • Gender: Male
  • PP - Penguin Power!
    • evilpenguin.dk
Re: Arpeggio Sweep Tab Thread (Guitar)
« Reply #11 on: December 09, 2006, 08:08:11 pm »
I have some pretty sweet sweeping tabs, but they're in ptb format. Is there anyway I can upload'em in a post?

-EP
Check out my music:

www.evilpenguin.dk

-And my band:

www.leakestwink.dk

Lysix

  • Guest
Re: Arpeggio Sweep Tab Thread (Guitar)
« Reply #12 on: December 09, 2006, 08:17:20 pm »
I have some pretty sweet sweeping tabs, but they're in ptb format. Is there anyway I can upload'em in a post?

-EP

Change their extension to something like .jpg and upload here. :)

Offline H

  • Full Member
  • ***
  • Posts: 545
  • Karma: 13
  • Gender: Male
  • Gamer. Guitarist. Slacker.
    • My site
Re: Arpeggio Sweep Tab Thread (Guitar)
« Reply #13 on: December 10, 2006, 03:11:12 pm »
I have some pretty sweet sweeping tabs, but they're in ptb format. Is there anyway I can upload'em in a post?

-EP

Open Powertab>File>Export>HTML File [this produces tab in text format]

or...

Open Powertab>Section>Output as Bitmap>To File... [to save tab as a Bitmap image. Only works one section at a time tho, it seems =/]
[Comfort the disturbed. Disturb the comfortable]
Crownus

Offline Aphex

  • Jr. Member
  • **
  • Posts: 212
  • Karma: 10
  • Gender: Male
Re: Arpeggio Sweep Tab Thread (Guitar)
« Reply #14 on: December 10, 2006, 06:14:21 pm »
freak thats awesome, is there a name to that song or did you just make it up urself?

thanx, but:
nope, it's just some random sweep picking lick I got somewhere or by someone

I made one my self tho, I might record it tonight
I got better in sweeping ^^

oh yeah - can't w8 for ep.s tabs ^^
« Last Edit: December 10, 2006, 06:17:22 pm by Fr3Ak` »