Author Topic: Because I love you all  (Read 2096 times)

0 Members and 1 Guest are viewing this topic.

Offline Ipster

  • Newbie
  • *
  • Posts: 6
  • Karma: 0
  • I'm a llama!
Because I love you all
« on: August 20, 2006, 03:02:03 am »
And you all don't know who I am. :p I don't post often, but anyways. There were a fair amount of tabs on the old forum that are still in the salvaged messages, so I thought I'd just bring up a few of them here. The following are some "official" tabs as transcribed by Robert and Jonne:

"Hero", the main riff, lead guitar:

E---------------------------------------
B---------------------------------------
G-9--------7-9------7---------7---------
D---7-10-7-----9-10------9-10---10-9-10-
A---------------------10----------------
E---------------------------------------

E----------------------------------------
B----------------------------------------
G-9------9-10-9-7----7---------7---------
D---7-10----------10------9-10---10-9-10-
A----------------------10----------------
E----------------------------------------



Bubble Bobble, Machinae-style:

E --------------------------------------------------------------------------
B ----5---7---8-7-5-----7-5-----5-----------------------------------5-7p5---
G 7-------------------7-----7-5---7-5p4--7---4p2p0-2-4-5-2-4-5--7-7-------7-
D --------------------------------------------------------------------------
A --------------------------------------------------------------------------
E --------------------------------------------------------------------------

E ---------------------------------------------------------------------
B --5-7-8-7-5-----7-5-----5-----------------------------------5-7------
G 7-------------7-----7-5---7-5p4--7---4p2p0-2-4-5-2-4-5--7-7-----7-8-- 
D ---------------------------------------------------------------------
A ---------------------------------------------------------------------
E ---------------------------------------------------------------------

Earthbound, stick riff:

C# ------------------------------------
G# ------------------------------------
E  ------------------------------------
B  -----------------5p0-2--------------
F# -----5-----4-----------2------------
C# -0-3---0-3---0-3---------0----0-----

C# ------------------------------------
G# ------------------------------------
E  ------------------------------------
B  -----------------5p0-2--------------
F# -----5-----3-----------3-2/3-3------
C# -0-3---0-3---3-0--------------------

C# ------------------------------------
G# ------------------------------------
E  ------------------------------------
B  -----------------5p0-2--------------
F# -----5-----4-----------0------0-----
C# -0-3---0-5---3-0---------3+---------

C# ------------------------------------
G# ------------------------------------
E  ------------------------------------
B  -----------------5p0-1--------------
F# -----5-----3-----------2-3-0-2-0----
C# -0-3---0-3---0-3--------------------


Hubnester Inferno
Intro riff:

E ------------------------------------------
B ------------------------------------------
G ----------------------------0-------------
D ----0-4-----4h5p4-------------4---0-2-4/5-
A -2--------2---------2---3-------3---------
E ------------------------------------------

E ------------------------------------------------
B ------------------------------------------------
G ------------------------------------------------
D ----0-4-----4h5p4---------4-----2---0-------0---
A -2--------2---------2-------2-----2-------4---4-
E ------------------------3-----3-------2-3-------


Pre-chorus pre-riff (whatever):

E ------------------------------------------
B ------------------------------------------
G ----------------------------0-------------
D ----0-4-----4h5p4-------------4---0-2-4/5-
A -2--------2---------2---3-------3---------
E ------------------------------------------

E ----
----------------------------------------------
B --------------------------------------------------
G ----------------------------4-----2---0-------0---
D ------5-----5h7p5-4-5-0-2-----2-----2-------4---4-
A ----7---------------------3-----3-------2-3-------
E -0--------x---------------------------------------

Verse chords:

E -x----3----x---0---0---
B -3----3----3---0---0---
G -4----0----4---0---2---
D -4----0----4---2---2---
A -2----2----2---2---0---
E ------3--------0-------


Also, here's one I did a long time ago for Dreadnaught, with a few additions from Tritox

e|----------------------------------------------------------------|
B|o--------------------------------------------------------------o|
G|----------------------------------------------------------------|
D|----------------------------------------------------------------|
A|o-----1--3--1--3--4--3--1------1--3--1--3--4--3--1-------------o|
E|--3------------------------3------------------------------------|

e|-----------------------------------|
B|-----------------------------------|
G|-----------------------------------|
D|-----------------------------------|
A|------1--3--1--3--4--3--4----------|
E|--3--------------------------------|

e|----------------------------------------------------------------|
B|o--------------------------------------------------------------o|
G|----------------------------------------------------------------|
D|----------------------------------------------------------------|
A|o-----4--6--4--6--7--6--4------4--6--4--6--7--6--4-------------o|
E|--/6------------------------6-----------------------------------|

e|-----------------------------------------|
B|-----------------------------------------|
G|-----------------------------------------|
D|-----------------------------------------|
A|------4--6--4--9--8--6-------------------|
E|---6-------------------9-8-9-------------|

e|-----------------------------------------------------|
B|---9--9---8--8---6--6--------------------------------|
G|-----------------------8-8-8--8-8-8--8-8-8-----------|
D|-----------------------------------------------------|
A|-----------------------------------------------------|
E|-----------------------------------------------------|
                         PM..................

e|-----------------------------------------------------|
B|-----------------------------------------------------|
G|----6--6---5--5---3--3-------------------------------|
D|-/8-8--8---7--7---5--5-------------------------------|
A|-/6-------------------------3-3-3--3-3-3--3-3-3------|
E|-----------------------------------------------------|
                             PM....................

e|----------------------------------------------10b11r10b11r10---12b---|
B|---------------------------------------------------------------12b---|
G|---------------------------------------------------------------------|
D|--7-7-7-7-7-7-7-7-/8-8-8-8--------7~---------------------------------|
A|--5-5-5-5-5-5-5-5-/6-6-6-6--------5~---------------------------------|
E|---------------------------------------------------------------------|

Small interlude at ~3:00:

e|---------------------------------------------------------------------------|
B|---------------------------------------------------------------------------|
G|---------------------------------------------------------------------------|
D|---------------------------------------------------------------------------|
A|------4-6---6-7-6-4----4-6---6-7-6-4----4-6---6-7-6-4----4-6---6-7-6-4-----|
E|--/6----------------6----------------6----------------6----------------6\--|


And the outro:

e|---------------------------------------------------------------------------|
B|---------------------------------------------------------------------------|
G|-----6-8-6-8-9-8-6----6-8-6-8-9----*----6--8--9--8--6-----6--8--9--8--6----|
D|--8--6-8-6-8-9-8-6-8--6-8-6-8-9----*-8--6--8--9--8--6--8--6--8--9--8--6----|
A|--8--4-6-4-6-7-6-4-8--4-6-4-6-7----*-8--4--6--7--6--4--8--4--6--7--6--4----|
E|--6----------------6-----------------6-----------------6-------------------|

e|--------------------|
B|--------------------|
G|--------------------|
D|-6-6-6-6--7-8--\----|
A|-6-6-6-6--7-8--\----|
E|-4-4-4-4--5-6--\----|

* = there's some chord here, probably E5/F5 but I'm not sure.


So enjoy those! There are a number of other tabs there, so search and see what you come up with.