Author Topic: HELP! Ninja: "Or I'll just kill you in your sleep..."  (Read 3153 times)

0 Members and 1 Guest are viewing this topic.

Offline Crazywater

  • Full Member
  • ***
  • Posts: 962
  • Karma: 6
HELP! Ninja: "Or I'll just kill you in your sleep..."
« on: May 14, 2006, 02:27:26 pm »
Does anyone know what is played there?

Intro/Main Riff

E|202520-|---------|02202520-|--0------|202520-|---------|02202520-|--0--------|
B|------2|0-0-020--|--------2|02-0--02-|------2|0-0-020--|--------2|02-0-20----|
G|-------|-2-2---2-|---------|-----2---|-------|-2-2---2-|---------|-------2---|
D|-------|--------4|---------|--------4|-------|--------4|---------|--------424|
A|-------|---------|---------|---------|-------|---------|---------|-----------|
E|-------|---------|---------|---------|-------|---------|---------|-----------|

"Caught in the wind..."
  F#5  A5   E5   B5   F#5  A5   B5   B5 E5
E|----|----|----|----|----|----|----|----|
B|----|----|----|----|----|----|----|----|
G|----|2---|----|4---|----|2---|4---|4---|
D|4---|2---|2---|4---|4---|2---|4---|4-2-|
A|4---|0---|2---|2---|4---|0---|2---|2-2-|
E|2---|----|0---|----|2---|----|----|--0-|

"You could sing the song..." 2nd guitar
E|-----------|-----------|
B|-----------|-----------|
G|-----------|-----------|
D|-----------|-----------|
A|2--0--2--2-|2--0--2---0|
E|-02-0--02-0|-02-02-020-| or something alike...


I'm not a real guitar player but anyways... that's what I got until now.
« Last Edit: May 14, 2006, 02:32:10 pm by Crazywater »
We're open to such things, we've even talked many times about doing it with Inja, but in a way that's redundant because we can already get Erica
:o brown chicken brown cow :o

Offline idunnosomename

  • Newbie
  • *
  • Posts: 11
  • Karma: 2
  • I'm a llama!
Re: HELP! Ninja: "Or I'll just kill you in your sleep..."
« Reply #1 on: May 27, 2006, 04:48:52 pm »
I play D, B, C#, C# in that bit and then A, E, A, E, F# after it

Offline Cloud

  • Jr. Member
  • **
  • Posts: 274
  • Karma: 2
  • Gender: Male
  • World Hate Center
Re: HELP! Ninja: "Or I'll just kill you in your sleep..."
« Reply #2 on: May 27, 2006, 11:53:22 pm »
I play D, B, C#, C# in that bit and then A, E, A, E, F# after it

Yeah, that doesn't help, because you can find those notes practically anywhere on the fretboard.
"Ball bag grab!  Ball bag grab!  Ball bag grab today!  Ball bag grab!  Ball bag grab!  Otherwise, you are gay!" - DragonForce

Offline idunnosomename

  • Newbie
  • *
  • Posts: 11
  • Karma: 2
  • I'm a llama!
Re: HELP! Ninja: "Or I'll just kill you in your sleep..."
« Reply #3 on: May 28, 2006, 12:55:09 am »
Well powerchords obviously dummy, its quite apparent I'm not meaning single notes on the high E string.

the D B C# bit would repeat by the way before the next set.

MDX

  • Guest
Re: HELP! Ninja: "Or I'll just kill you in your sleep..."
« Reply #4 on: May 28, 2006, 03:28:03 am »
lol. handbags at forty paces ladies. keep it clean

*rings bell*


Offline Crazywater

  • Full Member
  • ***
  • Posts: 962
  • Karma: 6
Re: HELP! Ninja: "Or I'll just kill you in your sleep..."
« Reply #5 on: May 28, 2006, 06:16:17 pm »
I play D, B, C#, C# in that bit and then A, E, A, E, F# after it

Yeah, that doesn't help, because you can find those notes practically anywhere on the fretboard.
wtf? That was my Question, and so I decide whether it helps or not.  :P

@ idunnosomename: Thanks, I'll try that.
We're open to such things, we've even talked many times about doing it with Inja, but in a way that's redundant because we can already get Erica
:o brown chicken brown cow :o