Author Topic: MaSu Tabs  (Read 31046 times)

0 Members and 1 Guest are viewing this topic.

MDX

  • Guest
Re: MaSu Tabs
« Reply #30 on: May 15, 2006, 09:55:24 pm »
chill 8)

masu tabs reads as general as that from the outside of the thread, not everybody reads the content of the thread, even though they probably should, heh =) but hey, if people are posting masu tabs, its not a bother, not like people are paying you to do it, hail to all to post tabs i say! YES! YES I DO!

Offline Cloud

  • Jr. Member
  • **
  • Posts: 274
  • Karma: 2
  • Gender: Male
  • World Hate Center
Re: MaSu Tabs
« Reply #31 on: May 25, 2006, 07:44:47 pm »
Tuning: B standard (B,E,A,D,Gb,B)

---------------------------------------------------------
---------------------------------------------------------
5-5--55--5-5-5-------------------------------------------
5-5--55--5-5-5------------------------------------------- (repeat as necessary)
3-3--33--3-3-3------------------------------------------- (palm mute twice before next riff)
---------------------------------------------------------

13--11--13--15-----------------------------15--11--------
----------------13--------------------------------15--13-
-------------------15-----13--15----12-13----------------
----------------------15---------15---------------------- (repeat twice, change timing on last
---------------------------------------------------------  two notes second time through)
---------------------------------------------------------


Sorry it's taking so long, but work has been kicking my ass since I promised to have "Ronin" done.

This is the intro to "Ronin", so it's something to mess around with for anyone interested.

Working on it some more after I finish this post.
"Ball bag grab!  Ball bag grab!  Ball bag grab today!  Ball bag grab!  Ball bag grab!  Otherwise, you are gay!" - DragonForce

Offline tankthespank

  • Newbie
  • *
  • Posts: 3
  • Karma: 0
Re: MaSu Tabs
« Reply #32 on: June 19, 2006, 07:47:00 am »
if u can, please make in text ^^ i dont like gp and ptb

Offline redeemer

  • Newbie
  • *
  • Posts: 14
  • Karma: 2
  • Gender: Male
Re: MaSu Tabs
« Reply #33 on: June 28, 2006, 04:14:22 am »
hi folks
possibly who has new tabulators? txt ....gp3/4/5/.... powertabs ?
pls send me to complete the next update of the masu tab collection on www.masu-tabs.de.vu

lg redeemer
« Last Edit: June 28, 2006, 04:17:05 am by redeemer »
did you doubt us from what came before?
were you not a believer?
here and now all your doubts are no more
this is redeemer

Offline bReAkDaNcE

  • Newbie
  • *
  • Posts: 1
  • Karma: 0
Re: MaSu Tabs
« Reply #34 on: July 01, 2006, 08:13:26 pm »
do any of you guys have tabs for lava trouble bubble?

Offline greasemonkey

  • Newbie
  • *
  • Posts: 13
  • Karma: 0
  • Gender: Male
  • I'm a lover, not a fighter. But I'l crack ya teeth
Re: MaSu Tabs
« Reply #35 on: July 25, 2006, 01:08:15 pm »
do any of you guys have tabs for lava trouble bubble?
yeh I was looking for that too. That and Legion of Stoopid. If anyone's working on it that'd be great. I'm trying to but i stink at tabbing things and it's probably in some screwy tuning:P

but great work on compiling all these!

Offline TuF

  • Newbie
  • *
  • Posts: 28
  • Karma: 2
  • Gender: Male
    • IMMORTAL Clan (No Game-Clan)
Re: MaSu Tabs
« Reply #36 on: July 27, 2006, 09:03:01 pm »
if someone has tabs, which are not @ www.masu-tabs.de.vu , please send it to:

redeemer@immortalclan.de or
tuf@immortalclan.de

MaSu4life!
greetz TuF
...We light the Torches and we hear the Sound
of the Soundtrack to the Rebellion...

Offline Leose

  • Newbie
  • *
  • Posts: 1
  • Karma: 0
Re: MaSu Tabs
« Reply #37 on: January 09, 2007, 10:09:49 pm »
Any updates on the "through the looking glass" tab?

I've searched all over the net but can't find any.

Offline Jack Lupino

  • Worst Dude
  • Machinae Prime
  • *****
  • Posts: 12941
  • Karma: 62
  • Gender: Female
Re: MaSu Tabs
« Reply #38 on: January 09, 2007, 10:23:11 pm »
I think the tabs of TTLG were done by someone already.

Offline Ayeron

  • Newbie
  • *
  • Posts: 24
  • Karma: 1
Re: MaSu Tabs
« Reply #39 on: January 10, 2007, 04:51:27 am »
@TuF your site is down :(

Offline 666frost666

  • Newbie
  • *
  • Posts: 1
  • Karma: 0
Re: MaSu Tabs
« Reply #40 on: February 29, 2008, 02:27:59 am »
TuF your site is down

Offline Finni

  • Newbie
  • *
  • Posts: 4
  • Karma: 0
Re: MaSu Tabs
« Reply #41 on: June 10, 2008, 01:23:42 am »
I have tabbed the intro and first verse of Through The looking glass some time ago.. let me know if ya want it  ;)

Offline Shalinar

  • Jr. Member
  • **
  • Posts: 119
  • Karma: 0
  • Gender: Male
Re: MaSu Tabs
« Reply #42 on: October 05, 2009, 02:42:24 am »
godly man...godly

Kaori Starting
E|------------------------------------|
B|------------------------------------|
G|------------------------------------|
D|------------------------------------|
A|---3-4---3-4-------3-4----3-4-------|
D|-4-----4-----4-6-3------3-----3-2-0-|


Here's the whole intro (note: it's supposed to be in drop c#, not drop c... im just lazy when typing. So yeah make all those sharp ;P):
D|---------------------------------------------------
A|---------------------------------------------------
F|---------------------------------------------------
C|---------------------------------------------------
G|---4-5---4-5--------4-5---4-5---------0-1---0-1--
C|-5-----5------5-7-4-----4------4-3-1------1------

D|-------------------------|
A|-------------------------|
F|-------------------------|
C|-------------------------|
G|-0------3-0--------6-5--|
C|---6-5------1-0-4-------|

D|---------------------------------------------------
A|---------------------------------------------------
F|---------------------------------------------------
C|---------------------------------------------------
G|---4-5---4-5--------4-5---4-5---------0-1---0-1--
C|-5-----5------5-7-4-----4------4-3-1------1------

D|---------------------|
A|---------------------|
F|---------------------|
C|---------------------|
G|-0-------------------|
C|---6-5-4-3-2-1--0---|

D|------------------------------------------------------------------------------------|
A|------------------------------------------------------------------------------------|
F|------------------------------------------------------------------------------------|
C|---------------------------------------------------------------------7-7--5--3--1-|
G|-0--0-1-0--0--0-1-0--0--0-1-0--0------0--0--0-1-0--0--0-1-0--5-5--3--1--0--|
C|-0--0-1-0--0--0-1-0--0--0-1-0--0------0--0--0-1-0--0--0-1-0------------------|

Enjoy!
« Last Edit: October 30, 2009, 12:18:48 am by Shalinar »