Author Topic: TTLG Guitar Interlude  (Read 2834 times)

0 Members and 1 Guest are viewing this topic.

Offline Blue Devil

  • Jr. Member
  • **
  • Posts: 210
  • Karma: 15
  • Gender: Male
  • Official MaSu Tab Maker
TTLG Guitar Interlude
« on: May 27, 2006, 08:20:17 am »
EDIT: I know the actual guitars are in something like Dropped D, but since the interlude doesn't touch those strings, I didn't consider changing the part.

http://rapidshare.de/files/22498882/ttlgint.gp5.html

This is the upper harmony part: (the lower part is also in the gp file)
      E  S  S  S S  S  S S  S  S S  S  S S  S 
E||-------------------------------------------|
B||-------------------------------------------|
G||------9-10----9-10----9-10----9-10----9-10-|
D||--12-------12------12------12------12------|
A||-------------------------------------------|
E||-------------------------------------------|


   E  S  S  S S  S  S S  S  S S  S  S S  S 
-------------------------------------------|
------8-10----8-10----8-10----8-10----8-10-|
--10-------10------10------10------10------|
-------------------------------------------|
-------------------------------------------|
-------------------------------------------|


   E   S  S  S  S  S  S  S  S  S  S  S  S  S  S 
------------------------------------------------|
--10--11-13-10-11-13-10-11-13-10-11-13-10-11-13-|
------------------------------------------------|
------------------------------------------------|
------------------------------------------------|
------------------------------------------------|


   E   S  S  S  S  S  S  S  S  S  S  S  S  S  S 
------------------------------------------------|
------13-15----13-15----13-15----13-15----13-15-|
--12--------12-------12-------12-------12-------|
------------------------------------------------|
------------------------------------------------|
------------------------------------------------|


   E   S  S  S  S  S  S  S  S  S  S  S  S  S  S 
------------------------------------------------|
------13-15----13-15----13-15----13-15----13-15-|
--14--------14-------14-------14-------14-------|
------------------------------------------------|
------------------------------------------------|
------------------------------------------------|


   E  S  S  S S  S  S S  S  S S  S  S S  S 
------8-10----8-10----8-10----8-10----8-10-|
--10-------10------10------10------10------|
-------------------------------------------|
-------------------------------------------|
-------------------------------------------|
-------------------------------------------|


   E  S  S  S S  S  S S  S  S S  S  S S  S 
------8-13----8-13----8-13----8-13----8-15-|
--10-------10------10------10------10------|
-------------------------------------------|
-------------------------------------------|
-------------------------------------------|
-------------------------------------------|


   E   S  S  S  S  S  S  S  S  S  S  S  S  S S     W                 
--12--------12-------13-------13----13-12-10-8-|--10----------------||
------13-------13-------13-------13------------|--------------------||
---------12-------12-------12------------------|--------------------||
-----------------------------------------------|--------------------||
-----------------------------------------------|--------------------||
-----------------------------------------------|--------------------||
« Last Edit: June 08, 2006, 04:43:26 am by Blue Devil »

Offline MashedByMachines

  • That guy
  • Community Supporter
  • Sr. Member
  • ******
  • Posts: 1927
  • Karma: 15
  • Gender: Male
  • Skala lök?
    • Music
Re: TTLG Guitar Interlude
« Reply #1 on: May 27, 2006, 01:45:16 pm »
sweet :D

http://mashedbymachines.newgrounds.com/


Believing in a zombieman from outer space who is his own father is pretty funny, but that's not what MaSu is about //yas

Offline TuF

  • Newbie
  • *
  • Posts: 28
  • Karma: 2
  • Gender: Male
    • IMMORTAL Clan (No Game-Clan)
Re: TTLG Guitar Interlude
« Reply #2 on: June 05, 2006, 09:06:26 pm »
download dosn't start! could you upload it again to another page? it would be great!

thx, TuF
...We light the Torches and we hear the Sound
of the Soundtrack to the Rebellion...

Offline Blue Devil

  • Jr. Member
  • **
  • Posts: 210
  • Karma: 15
  • Gender: Male
  • Official MaSu Tab Maker
Re: TTLG Guitar Interlude
« Reply #3 on: June 08, 2006, 04:44:14 am »
Alright, I've uploaded the file to rapidshare (hopefully you guys don't mind the waiting time...)
http://rapidshare.de/files/22498882/ttlgint.gp5.html

Offline TuF

  • Newbie
  • *
  • Posts: 28
  • Karma: 2
  • Gender: Male
    • IMMORTAL Clan (No Game-Clan)
Re: TTLG Guitar Interlude
« Reply #4 on: June 08, 2006, 02:33:21 pm »
hey thx a lot!
...We light the Torches and we hear the Sound
of the Soundtrack to the Rebellion...

Offline greasemonkey

  • Newbie
  • *
  • Posts: 13
  • Karma: 0
  • Gender: Male
  • I'm a lover, not a fighter. But I'l crack ya teeth
Re: TTLG Guitar Interlude
« Reply #5 on: June 11, 2006, 10:50:30 am »
sweet tab gw