Author Topic: TAB : Winterstorm Second-Solo  (Read 1926 times)

0 Members and 1 Guest are viewing this topic.

Offline cacazima

  • Newbie
  • *
  • Posts: 3
  • Karma: 0
TAB : Winterstorm Second-Solo
« on: April 22, 2006, 04:53:03 pm »
I just tabbed the second part of the Solo in Winterstorm (starting at 02.26), i love this solo so i had to play it, and after i had it i thought i could share it with all of you :)
I belive its 100% correct, tho if you have corrections please let me know,
i'm also working on the first part of the solo and i will release the full solo tab when i have it 100% correct :]

Enjoy!


Machinea Supremacy - Winterstorm Second-Solo Tab

Tabbed by Chris 'MrLyCon' B.J
Date: Saturday, 22 April 2006
Time used: aprox 2 hours

#----------------------------------PLEASE NOTE----------------------------------#
# This file is the author's own work and represents their interpretation of the #
# song. You may only use this file for private study, scholarship, or research. #
#-------------------------------------------------------------------------------#

/  = Slide Up
\  = Slide Down
~  = Vibrato
X  = Mute
h  = Hammer On
p  = Pull Off
r  = Let Ring
^  = Bend up and release
^^ = Bend up and hold
^v = Bend up and down
v  = Bend down
() = Optional note

Note: I have only played guitar for a cupple of years but i'm 100% sure this is correct.
Tho If you have any comments or corections please let me know.


Second Guitar Solo
e:---------------------------------------------------------------------------:
B:-0h2--0--2-2--5^v---3-3p2------------2-2--9^-^9v---------------------------:
G:------------------2-------4--2-2h4p2---------------------------------------:
D:-------------------------------------------------6-7-4r--4-6r-6-6^v-4-6-4r-:
A:---------------------------------------------------------------------------:
E:---------------------------------------------------------------------------:

e:---------------4-5r---0h9-7^v-5-7r--4-5-4-4h5p4----------------------------:
B:-----------5-7----------------------------------7r-------------------------:
G:-----4-6r------------------------------------------------------------------:
D:-6-7-----------------------------------------------------------------------:
A:---------------------------------------------------------------------------:
E:---------------------------------------------------------------------------:

e:---------------------------------------------------------------------------:
B:-5h6-6p5-6p5-5h6-6p5-6p5-5h7-7p5-6p5-5h7-7p5-7p5-5h7-6p5-6p5--7^^v-(7)(7)--:
G:---------------------------------------------------------------------------:
D:---------------------------------------------------------------------------:
A:---------------------------------------------------------------------------:
E:---------------------------------------------------------------------------:
« Last Edit: April 22, 2006, 04:57:01 pm by cacazima »

Offline Tritox

  • Jr. Member
  • **
  • Posts: 206
  • Karma: 14
  • Gender: Male
  • Nuuh
Re: TAB : Winterstorm Second-Solo
« Reply #1 on: April 23, 2006, 01:14:46 pm »
<3