Author Topic: TAB : Kings Of The Scene Solo  (Read 2441 times)

0 Members and 1 Guest are viewing this topic.

Offline cacazima

  • Newbie
  • *
  • Posts: 3
  • Karma: 0
TAB : Kings Of The Scene Solo
« on: March 12, 2006, 06:56:46 pm »
as nobody wanted to team up with me to do this i was forced to tab it by myself, note that i have been playing guitar for only a cupple of years and i'm not very good, but i think this tab is pretty correct, if you have any comments or corections to this tab please let me know as i want this tab to be perfect, and it wasn't too easy to tab it either, some parts are very hard to hear.
this is also my first official tab, i have tabbed stuff before but never released it, so please give me comments :)

anyway, enjoy tha tab :D

Link to the text file: http://www.enigmatic-studios.com/chris/tabs/machinea%20supremacy%20-%20kings%20of%20the%20scene%20solo%20tab.txt

and i'll also put the tab directly in here:

Machinea Supremacy - Kings of the scene Solo Tab

Tabbed by Chris 'MrLyCon' B.J
Date: Sunday, 12 March 2006
Time used: aprox 4 hours

#----------------------------------PLEASE NOTE----------------------------------#
# This file is the author's own work and represents their interpretation of the #
# song. You may only use this file for private study, scholarship, or research. #
#-------------------------------------------------------------------------------#

/  = Slide Up
\  = Slide Down
~  = Vibrato
X  = Mute
h  = Hammer On
p  = Pull Off
r  = Let Ring
^  = Bend up and release
^^ = Bend up and hold
^v = Bend up and down
v  = Bend down
() = Optional note

Middle
E:---------------------------------------------------------------------------:
B:-9^^--10h12-10r----9^^--10h12-12^^12-12v-10-7^v---------7----------6-------:
G:------------------------------------------------6~r--7h9---66-77-9---------:
D:---------------------------------------------------------------------------:
A:---------------------------------------------------------------------------:
E:---------------------------------------------------------------------------:

E:---------------------------------------------------------------------------:
B:-7-9-10--9-10-10^^~--10-12-12^^~--12p10-12----12^v^~12^-12-10h12p10-9~-----:
G:---------------------------------------------------------------------------:
D:---------------------------------------------------------------------------:
A:---------------------------------------------------------------------------:
E:---------------------------------------------------------------------------:

Guitar Solo
E:--------7----------------------9-12p9--------------------------------------:
B:-7-9-10---10-9-7~--7-6-7--9-10--------9--9~-9~~7--10p7---7-9h10-10^-10p9-7-:
G:-------------------------------------------------------9-------------------:
D:---------------------------------------------------------------------------:
A:---------------------------------------------------------------------------:
E:---------------------------------------------------------------------------:

E:---------------------------------------------------------------------------:
B:---------------------------------------------7h10--7h9p7-6-7h9h10-9h10-12^-:
G:-9-7-6~------9^^--7h9p7-6--2h4-4h5-5h7-9^v^~-------------------------------:
D:---------9p7---------------------------------------------------------------:
A:---------------------------------------------------------------------------:
E:---------------------------------------------------------------------------:

E:-11h12p11-9h11-13^^~-------------------------------------------------------:
B:---------------------------------------------------------------------------:
G:---------------------------------------------------------------------------:
D:---------------------------------------------------------------------------:
A:---------------------------------------------------------------------------:
E:---------------------------------------------------------------------------:

E:--------7-------------7-------------7-------------7-------------7----------:
B:-7-9-10---10-9-7-9-10---10-9-7-9-10---10-9-7-9-10---10-9-7-9-10---10-9-7-9-:
G:---------------------------------------------------------------------------:
D:---------------------------------------------------------------------------:
A:---------------------------------------------------------------------------:
E:---------------------------------------------------------------------------:

E:-12^-12^-12^-12^-1212v-----------------------------------------------------:
B:-----------------------12-10p9-7-------------------------------------------:
G:---------------------------------7-7h9------------------------6-----6-7^~--:
D:---------------------------------------10p9-7-4-6-7-4-6-7-4-7---4-7--------:
A:---------------------------------------------------------------------------:
E:---------------------------------------------------------------------------:

E:-----------------------7-9p7---------------13-14-13-11-13^^----------------:
B:------------7h9-7h9h10-------10p9p7---7------------------------------------:
G:--------7-9-------------------------9--------------------------------------:
D:-7h9-10--------------------------------------------------------------------:
A:---------------------------------------------------------------------------:
E:---------------------------------------------------------------------------:


« Last Edit: March 17, 2006, 06:21:27 pm by cacazima »