Author Topic: Cryosleep (Incomplete)  (Read 8085 times)

0 Members and 1 Guest are viewing this topic.

Offline SYNTeNiC (a.k.a SynDRomE)

  • Newbie
  • *
  • Posts: 40
  • Karma: 4
  • <3 SomethingGood
Cryosleep (Incomplete)
« on: February 08, 2006, 03:48:01 am »
Just worked this out last night, its not much, but enough to work from.


Intro
E-----------------------------------------------
B-----------------------------------------------
G-----------------------------------------------
D-7-7-7-5~--777-7-5~--2-2-2-3~--222-2-3~--------
A-7-7-7-5~--777-7-5~--2-2-2-3~--222-2-3~--------
D-7-7-7-5~--777-7-5~--2-2-2-3~--222-2-3~--------


Solo bit (1:40)
E------------------------------------------------
B-17~--13-15~--12-13~----------------------------
G------------------------------------------------
D------------------------------------------------
A------------------------------------------------
D------------------------------------------------
Quote from: SomethingGood
SomethingApt says:
have you put a pic in the mugshots thread?
SYNTeNiC says:
neg cause i dont have a cam lol
SomethingApt says:
GET ONE DAMMIT!!
SomethingApt says:
wait... i could email you mine... hold on
SomethingApt says:
*tries to fit camera into cd drive*

Offline H

  • Full Member
  • ***
  • Posts: 545
  • Karma: 13
  • Gender: Male
  • Gamer. Guitarist. Slacker.
    • My site
Re: Cryosleep (Incomplete)
« Reply #1 on: February 10, 2006, 10:23:05 pm »
The song was recorded in standard tuning.


Here is the main rhythm:

E|-----------------------------------------------------------------|
B|-----------------------------------------------------------------|
G|---2-----2---------2-----2---------2-----2---------2-----2-------|
D|---2-----2---5-2---2-----2---5-2---2-----2---5-2---2-----2---5-2-|
A|-0-0-0-0-0-0-----0-0-0-0-0-0-----0-0-0-0-0-0-----0-0-0-0-0-0-----|
E|-----------------------------------------------------------------|


E|-----------------------------------------------------------------|
B|-----------------------------------------------------------------|
G|-----------------------------------2-----2---------2-----2-------|
D|---2-----2---------2-----2---------2-----2---5-2---2-----2---5-2-|
A|---2-----2---5-3---2-----2---3-5-0-0-0-0-0-0-----0-0-0-0-0-0-----|
E|=0-0-0-0-0-0-----0-0-0-0-0-0-------------------------------------|


I will tab more out some more later. But that should get you started :)
[Comfort the disturbed. Disturb the comfortable]
Crownus

Offline Fallout

  • Machinae Prime
  • *****
  • Posts: 6430
  • Karma: 71
  • Gender: Male
Re: Cryosleep (Incomplete)
« Reply #2 on: March 26, 2007, 03:12:41 am »
I think it's a little more like this:

E|--------------------------------------------------------------|
B|--------------------------------------------------------------|
G|---2-----2--------2-----2--------2-----2---------2-----2------|
D|---2-----2--5-2---2-----2--5-2---2-----2---5-2---2-----2--5-2-|
A|-0-0-0-0-0------0-0-0-0-0------0-0-0-0-0-------0-0-0-0-0------|
E|--------------------------------------------------------------|

E|-------------------------------------------------------------|
B|-------------------------------------------------------------|
G|---------------------------------2-----2--------2-----2------|
D|---2-----2--------2-----2--------2-----2--5-2---2-----2--5-2-|
A|---2-----2--5-3---2-----2--3-5-0-0-0-0-0------0-0-0-0-0------|
E|-0-0-0-0-0------0-0-0-0-0------------------------------------|


I only changed it a little, I cant hear that last muted 0 before the 5-2. I also had a shot at tabbing some other bits, which go something like this, (i think):


(03:46)
E|---------------------------------------------------------------|
B|---------------------------------------------------------------|
G|---------------------------------------------------------------|
D|---------------------------------------------------------------|
A|---------------------------------------------------------------|
E|-5-5-5-5-5-5-5-5-5-5-5-0-0-0-0-0-0-5-5-5-5-5-5-5-5-5-5-5-5-5-5-|

(4:16)
E|-----------------------------------------|
B|-----------------------------------------|
G|---2---------2---------2---------2--2----|
D|---2---------2---------2---------2--2--2-|
A|-0-0-(0-0-0)-0-(0-0-0)-0-(0-0-0)-0--0--2-|
E|---------------------------------------0-|



Hopefully this should revive the tabbing of Cryosleep? I wanna be able to play it. :)

EDIT: learnt it! What an awesome riff :D
« Last Edit: March 26, 2007, 03:44:24 am by fallout­ »

Offline Yamakashi

  • Newbie
  • *
  • Posts: 20
  • Karma: 1
  • Gender: Male
  • In the far twilight awaits opens up to embrace...
Re: Cryosleep (Incomplete)
« Reply #3 on: August 07, 2007, 09:31:05 pm »
hmm can somebody upload midi file of this or something? i dont get it... it doesnt sound for me

Offline Jack Lupino

  • Worst Dude
  • Machinae Prime
  • *****
  • Posts: 12941
  • Karma: 62
  • Gender: Female
Re: Cryosleep (Incomplete)
« Reply #4 on: August 07, 2007, 10:20:26 pm »
hmm can somebody upload midi file of this or something? i dont get it... it doesnt sound for me

Reading carefully helps. I sometimes 'assume chords' but in fsct they are different.

Have another go ! :)

Offline Yamakashi

  • Newbie
  • *
  • Posts: 20
  • Karma: 1
  • Gender: Male
  • In the far twilight awaits opens up to embrace...
Re: Cryosleep (Incomplete)
« Reply #5 on: August 08, 2007, 12:04:57 am »
So i think i just suck... cos i cant get this  "5-2" sounds.... were are they??? =(

Offline H

  • Full Member
  • ***
  • Posts: 545
  • Karma: 13
  • Gender: Male
  • Gamer. Guitarist. Slacker.
    • My site
Re: Cryosleep (Incomplete)
« Reply #6 on: August 08, 2007, 09:04:13 am »
So i think i just suck... cos i cant get this  "5-2" sounds.... were are they??? =(

Check it out bro: You read tab like you're reading actual text. From left to right. :)

So those [5-2]'s you see are actually just hitting that specific sting (in this case, the D string) on the 5th fret [which would be the 5], then hitting the next note on the 2nd fret [which would be the 2].
[Comfort the disturbed. Disturb the comfortable]
Crownus

Offline Yamakashi

  • Newbie
  • *
  • Posts: 20
  • Karma: 1
  • Gender: Male
  • In the far twilight awaits opens up to embrace...
Re: Cryosleep (Incomplete)
« Reply #7 on: August 08, 2007, 11:42:45 am »
Hey, alright, im not that stupid, i know how to read tabs :D maybe i said that in wrong way. I cant hear this 5-2 in an actual song....  Drums are getting me confused maybe... But for me its like...

E|--------------------------------------------------------------|
B|----------------------------------x2----------------------------|
G|---2---2-2---2------2---2-2---2-------------------------------------|
D|---2---2-2---2------2---2-2---2----2---2-2---2----2---2-2----2-----|
A|-0-0---0-0-0-0 -----0---0-0-0-0----2---2-2---2----2---2-2----2----|
E|-----------------------------------0-0--0-0-0-0----0---0-0-0-0----|

Try it please.

P.S. oh, and even there is "5-2" for me it sounds like "2-5" xD first sound is lower
« Last Edit: August 08, 2007, 12:00:35 pm by Yamakashi »

Offline Ak!mbo

  • Newbie
  • *
  • Posts: 47
  • Karma: 2
  • Gender: Male
  • -=CYNiC=-
Re: Cryosleep (Incomplete)
« Reply #8 on: October 18, 2007, 08:42:16 pm »
How come you don't hear the "5-2"?
The song goes "dun dun duh duh *dee-da!* dun dun duh duh *dee-da!*"
Or are we talking about different parts?

Offline grey

  • Newbie
  • *
  • Posts: 24
  • Karma: 0
Re: Cryosleep (Incomplete)
« Reply #9 on: October 20, 2007, 01:01:58 pm »
i tried to tab the part. it's obviously not perfect and i know that the drums are quite simple. anyway, it might give you an idea of how to play the riff.
feel free to work with the tab. ;)

http://rapidshare.com/files/63862575/cryosleep_tab.zip.html (contains gp5 file, gp4 file, midi file and pdf file)

hope this helps.

Offline Jack Lupino

  • Worst Dude
  • Machinae Prime
  • *****
  • Posts: 12941
  • Karma: 62
  • Gender: Female
Re: Cryosleep (Incomplete)
« Reply #10 on: October 22, 2007, 12:55:10 am »
The song goes "dun dun duh duh *dee-da!* dun dun duh duh *dee-da!*"
Soilwork-Shadowchild! listen to it and grab your quote and you will see..

Offline Yamakashi

  • Newbie
  • *
  • Posts: 20
  • Karma: 1
  • Gender: Male
  • In the far twilight awaits opens up to embrace...
Re: Cryosleep (Incomplete)
« Reply #11 on: October 22, 2007, 01:00:11 pm »
i tried to tab the part. it's obviously not perfect and i know that the drums are quite simple. anyway, it might give you an idea of how to play the riff.
feel free to work with the tab. ;)

http://rapidshare.com/files/63862575/cryosleep_tab.zip.html (contains gp5 file, gp4 file, midi file and pdf file)

hope this helps.

I love you =]

Offline grey

  • Newbie
  • *
  • Posts: 24
  • Karma: 0
Re: Cryosleep (Incomplete)
« Reply #12 on: October 22, 2007, 09:25:23 pm »
you're welcome mate. if you have any further questions/problems let me know.
it's quite tricky to tab a song in the beginning but when you've played the guitar for several years it gets easier. just keep on playing & practicing. ;)
btw when did you start to play the guitar?
« Last Edit: October 22, 2007, 11:34:11 pm by grey »

Offline Yamakashi

  • Newbie
  • *
  • Posts: 20
  • Karma: 1
  • Gender: Male
  • In the far twilight awaits opens up to embrace...
Re: Cryosleep (Incomplete)
« Reply #13 on: February 07, 2008, 02:05:25 pm »
Sorry, it has been ages since i were here last time. I lost internet at home because i stopped paying :P Now i feel like impared person... Anyway i play guitar for 2,5 years so i guess im still a beginner. Its really hard to tab song... But your version sounds really good i enjoyed it ;) Shame its so short :) Best wishes. Cya

Offline grey

  • Newbie
  • *
  • Posts: 24
  • Karma: 0
Re: Cryosleep (Incomplete)
« Reply #14 on: February 19, 2008, 08:38:46 pm »
keep up the work and you'll kick ass. i know it's boring to practise but i guess that's the reason why most players sucks: they do not have the motivation needed to become good.
i might try to tab this song but as i've promised to work on sidology II it will take some time...