Author Topic: Anyone working on a Sidology Ep 2 Tab?  (Read 29514 times)

0 Members and 1 Guest are viewing this topic.

Offline Skvate

  • Jr. Member
  • **
  • Posts: 166
  • Karma: 13
  • Gender: Male
  • Mediocre
Re: Anyone working on a Sidology Ep 2 Tab?
« Reply #15 on: July 02, 2006, 07:38:35 pm »
Ok, so ive finally startet to work a bit on this tab. Startet with the last part since its the most "epic" part imo(and the thread-starter mentioned something about "epic"). Heres the part i think ive finished. Just the melodic riff that starts 11:10, and repeats until about 11:40. I dont know if its 100% correct, but its fairly close....close enough :P
(standard EADGBE tuning)
  Gtr I
|-------------------8------------------------------------8----------------------|
|----------------10---10------------------------------10---10-------------------|
|--------------9---------9-------------------------10---------10----------------|
|---------7-10-------------10-7---------------7-10---------------10-7-----------|
|-------7-----------------------7-----------8-------------------------8---------|
|-8-5-8---------------------------8-5-8-5-8-----------------------------8-5-8---|


|-----------------10-----------------------------------8--------------------|
|--------------10----10-----------------------------10---10-----------------|
|---------7-10----------10-7----------------------9---------9---------------|
|-------7--------------------7---------------7-10-------------10-7----------|
|-----8------------------------8-----------7-----------------------7--------|
|-5-8----------------------------8-5-8-5-8---------------------------8-5-8--|


Heres the opening-part on synth, which is almost identical to the guitar-riff, except that it starts 3/4 octave up, and then goes another 1/4 octave up when the rythm-guitar kicks inn.

|-------------------------17----------------------------------------------17----------------------------|
|----------------------19----19----------------------------------------19----19-------------------------|
|-------------------18----------18----------------------------------19----------19----------------------|
|-------------16-19----------------19-16----------------------16-19----------------19-16----------------|
|----------16----------------------------16----------------17----------------------------17-------------|
|-17-14-17----------------------------------17-14-17-14-17----------------------------------17-14-17-14-|


|-------------------19-------------------------------------------17-------------------------|
|----------------19----19-------------------------------------19----19----------------------|
|----------16-19----------19-16----------------------------18----------18-------------------|
|-------16----------------------16-------------------16-19----------------19-16-------------|
|----17-------------------------------------------16----------------------------16----------|
|-17-------------------------------17-14-17-14-17----------------------------------17-14-17-|


|----------------------17-20-17----------------------------------------17-20-17----------------------|
|-------------------17----------17----------------------------------18----------18-------------------|
|-------------14-17----------------17-14----------------------14-17----------------17-14-------------|
|----------14----------------------------14----------------15----------------------------15----------|
|-15-12-15----------------------------------15-12-15-12-15----------------------------------15-12-15-|
|----------------------------------------------------------------------------------------------------|


|-------------------17-22-17----------------------------------------17-20-17-----------------------|
|-------------15-18----------18-15-------------------------------17----------17--------------------|
|----------14----------------------14----------------------14-17----------------17-14--------------|
|-------15----------------------------15----------------14----------------------------14-----------|
|-12-15----------------------------------15-12-15-12-15----------------------------------15-12-15--|
|--------------------------------------------------------------------------------------------------|



Ill post more when its ready. Hopefully before end of summer :P
« Last Edit: July 02, 2006, 08:22:52 pm by Skvate »
Lifeless I sail through these ironic fashions, dressed in the flesh of the jokers passions. On the uttermost brink of madness I stroll, and the rise of insanity as my most precious goal. Tricking the trail of my long lost obscurity, I gather me inside the artifice of eternity....

Offline FireEatingNinja

  • Newbie
  • *
  • Posts: 7
  • Karma: 0
  • Gender: Male
  • I lick my gf.
    • Myspace
Re: Anyone working on a Sidology Ep 2 Tab?
« Reply #16 on: July 04, 2006, 12:59:53 am »
TYVM Skvate. I really cant wait to play this entire song through.

I'm still a complete nubula at guitar... I dont practice enough.

My only goal is to be able to play Sidology Ep 2&3.

It would be beautiful.
*pweh* -_-

Offline AnimE

  • Newbie
  • *
  • Posts: 3
  • Karma: 0
  • Gender: Male
  • Kung Fu Boooof!
    • http://www.myspace.com/ghost_2k6
Re: Anyone working on a Sidology Ep 2 Tab?
« Reply #17 on: August 10, 2006, 02:41:48 pm »
i have managed to play up to the second acoustic, and slightly past that also... but it confuses me on which string sounds nearest... i have been playing by ear and can play about 1.12 into the song before im confuddled.. tab wouldnt help me as i cant read it all that good... im still only a guitar nubola :(   >:(   :'(
Im Left Alone Here and I Can't Remember why...

Offline Jack Lupino

  • Worst Dude
  • Machinae Prime
  • *****
  • Posts: 12941
  • Karma: 62
  • Gender: Female
Re: Anyone working on a Sidology Ep 2 Tab?
« Reply #18 on: August 11, 2006, 01:21:42 pm »
TYVM Skvate. I really cant wait to play this entire song through.

I'm still a complete nubula at guitar... I dont practice enough.

My only goal is to be able to play Sidology Ep 2&3.

It would be beautiful.
Sid 3 is not that difficult, i think you're better off starting with that before taking 2 on.

Offline Blue Devil

  • Jr. Member
  • **
  • Posts: 210
  • Karma: 15
  • Gender: Male
  • Official MaSu Tab Maker
Re: Anyone working on a Sidology Ep 2 Tab?
« Reply #19 on: August 12, 2006, 06:30:49 am »
I'm going to see what I can get done of it tonight. I've already tabbed up to the first distortion part of the song. It'll be in GP5 format.

Offline AnimE

  • Newbie
  • *
  • Posts: 3
  • Karma: 0
  • Gender: Male
  • Kung Fu Boooof!
    • http://www.myspace.com/ghost_2k6
Re: Anyone working on a Sidology Ep 2 Tab?
« Reply #20 on: September 03, 2006, 04:19:27 pm »
i have kinda given up on the sid 2 now, im trying, instead,to learn Soundtrack - butwould still be immensely grateful for the tab!!!
Im Left Alone Here and I Can't Remember why...

Offline Tomba

  • Newbie
  • *
  • Posts: 15
  • Karma: 0
Re: Anyone working on a Sidology Ep 2 Tab?
« Reply #21 on: September 05, 2006, 05:02:05 pm »
PTB... hmm.. i cant believe how you guys can use that program.
I mean... the song sounds retarded cuz you cant have any pauses between the notes.
No offence to anyone, just saying GP is better :p

anyways, rock on! :D

Offline H

  • Full Member
  • ***
  • Posts: 545
  • Karma: 13
  • Gender: Male
  • Gamer. Guitarist. Slacker.
    • My site
Re: Anyone working on a Sidology Ep 2 Tab?
« Reply #22 on: September 15, 2006, 10:56:22 am »
PTB... hmm.. i cant believe how you guys can use that program.
I mean... the song sounds retarded cuz you cant have any pauses between the notes.
No offence to anyone, just saying GP is better :p

anyways, rock on! :D

Uhhhh.....yes you can. 0_o

http://www.geocities.com/sykodx469/Metalium__SteelAvenger.ptb

Check the bass section of that PTB.
[Comfort the disturbed. Disturb the comfortable]
Crownus

Offline MetalMachinae

  • Newbie
  • *
  • Posts: 8
  • Karma: 0
  • Gender: Male
Re: Anyone working on a Sidology Ep 2 Tab?
« Reply #23 on: September 15, 2006, 04:40:02 pm »
an empty file?
Yay! Wacken:Open:Air For teh win!

Offline H

  • Full Member
  • ***
  • Posts: 545
  • Karma: 13
  • Gender: Male
  • Gamer. Guitarist. Slacker.
    • My site
Re: Anyone working on a Sidology Ep 2 Tab?
« Reply #24 on: September 16, 2006, 12:39:08 am »
Oi.

It's not empty. You have to go into the BASS portion of the tab to see anything.

**adds attatchments**
[Comfort the disturbed. Disturb the comfortable]
Crownus

Offline Skvate

  • Jr. Member
  • **
  • Posts: 166
  • Karma: 13
  • Gender: Male
  • Mediocre
Re: Anyone working on a Sidology Ep 2 Tab?
« Reply #25 on: September 16, 2006, 06:00:27 pm »
Only n00bs use GP :P
Who cares if it sounds better or not, PB is free.
Lifeless I sail through these ironic fashions, dressed in the flesh of the jokers passions. On the uttermost brink of madness I stroll, and the rise of insanity as my most precious goal. Tricking the trail of my long lost obscurity, I gather me inside the artifice of eternity....

Offline Blue Devil

  • Jr. Member
  • **
  • Posts: 210
  • Karma: 15
  • Gender: Male
  • Official MaSu Tab Maker
Re: Anyone working on a Sidology Ep 2 Tab?
« Reply #26 on: November 04, 2006, 06:56:23 am »
Only n00bs use GP :P
Who cares if it sounds better or not, PB is free.

I got GP for free
>_>
<_<

Offline nyxynyx

  • Newbie
  • *
  • Posts: 3
  • Karma: 2
Re: Anyone working on a Sidology Ep 2 Tab?
« Reply #27 on: November 04, 2006, 10:46:24 am »
anyone still working on ep 2? i wanna play it!! :D

Offline MetalMachinae

  • Newbie
  • *
  • Posts: 8
  • Karma: 0
  • Gender: Male
Re: Anyone working on a Sidology Ep 2 Tab?
« Reply #28 on: November 11, 2006, 11:05:58 pm »
ah thanks for gp4- format! you rock! thanks a lot, now i will practice
Yay! Wacken:Open:Air For teh win!

Offline Aphex

  • Jr. Member
  • **
  • Posts: 212
  • Karma: 10
  • Gender: Male
Re: Anyone working on a Sidology Ep 2 Tab?
« Reply #29 on: December 07, 2006, 06:56:01 pm »
nice tab,
sry 4 opening the topic in requests, I haven't seen this topic :((
« Last Edit: December 07, 2006, 07:03:02 pm by Fr3Ak` »