Author Topic: The wired  (Read 5849 times)

0 Members and 1 Guest are viewing this topic.

Offline H

  • Full Member
  • ***
  • Posts: 545
  • Karma: 13
  • Gender: Male
  • Gamer. Guitarist. Slacker.
    • My site
Re: The wired
« Reply #15 on: November 29, 2005, 03:26:08 am »
H to the rescue :)

http://www.geocities.com/sykodx469/wired.html

Me playing the synth riff (but on guitar of course), & a link to the powertab for it :)

And, here as well.




Tuning = Drop-D 1/s step down

Gtr I (Db Ab Db Gb Bb Eb) - 'guitar 1'
Gtr II (Db Ab Db Gb Bb Eb) - 'guitar 2'


  Q=160
  Gtrs I, II
  PM  PM----|   PM--|   PM----|       PM  PM----|   PM--|   PM----|
  E E E E E E E E   E E E E E E E E   E E E E E E E E   E E E E E E E E
|-----------------|-----------------|-----------------|-----------------|
|-----------------|-----------------|-----------------|-----------------|
|-----------------|-----------------|-----------------|-----------------|
|---2---------2---|---2---------2---|---2---------2---|---2---------2---|
|-----------------|---------------5-|-----------------|---------------5-|
|-2---5-2-4-2---0-|-2---5-2-4-2-----|-2---5-2-4-2---0-|-2---5-2-4-2-----|


  PM  PM----|   PM--|   PM----|       PM|   PM----|     PM|   PM--|
  E E E E E E E E   E E E E E E E E   E E E E E E E E   E E E E E E E E
|-----------------|-----------------|-----------------|-----------------|
|-----------------|-----------------|-----------------|-----------------|
|-----------------|-----------------|-----0-----------|-----0-----------|
|---5---------5---|---5---------5---|---1---1-3-1---1-|---1---1-----1-3-|
|-----------------|---------------8-|-----------------|-----------------|
|-5---8-5-7-5---3-|-5---8-5-7-5-----|-1-----------1---|-1-------3-1-----|


[Comfort the disturbed. Disturb the comfortable]
Crownus

Offline Jack Lupino

  • Worst Dude
  • Machinae Prime
  • *****
  • Posts: 12939
  • Karma: 62
  • Gender: Female
Re: The wired
« Reply #16 on: November 29, 2005, 01:18:26 pm »
Yo H !
'sup

Offline H

  • Full Member
  • ***
  • Posts: 545
  • Karma: 13
  • Gender: Male
  • Gamer. Guitarist. Slacker.
    • My site
Re: The wired
« Reply #17 on: November 29, 2005, 02:05:15 pm »
What's up Rad? :D

Long time no see buddy. But then again, that's my fault for not posting much, isn't it? ^_^;;;;
[Comfort the disturbed. Disturb the comfortable]
Crownus

Offline Jack Lupino

  • Worst Dude
  • Machinae Prime
  • *****
  • Posts: 12939
  • Karma: 62
  • Gender: Female
Re: The wired
« Reply #18 on: December 01, 2005, 06:39:08 pm »
All is good here,

And yeah, you should post a bit more :)

i got a gig with the band, check it out at musician's section :)

Offline MashedByMachines

  • That guy
  • Community Supporter
  • Sr. Member
  • ******
  • Posts: 1927
  • Karma: 15
  • Gender: Male
  • Skala lök?
    • Music
Re: The wired
« Reply #19 on: December 01, 2005, 10:57:16 pm »
GREEEAAAAT TAB H :D:D:D thanxxxx  ;D ;D ;D

http://mashedbymachines.newgrounds.com/


Believing in a zombieman from outer space who is his own father is pretty funny, but that's not what MaSu is about //yas

MDX

  • Guest
Re: The wired
« Reply #20 on: December 02, 2005, 10:38:39 am »
sorry i couldnt be of assistance, as fiindil explained, and r0ckin H =) excellent tabbing.

Offline H

  • Full Member
  • ***
  • Posts: 545
  • Karma: 13
  • Gender: Male
  • Gamer. Guitarist. Slacker.
    • My site
Re: The wired
« Reply #21 on: December 02, 2005, 10:39:23 pm »
Rad: Awsome bro! For anyone to get the chance to gig, is such a cool thing :) Glad to hear things are going good for ya.

Mashed/Megadoyo: Heh. Thanks a lot guys :D. Just trying to contribute to the community with what little time I seem to have these days.  :o
[Comfort the disturbed. Disturb the comfortable]
Crownus