Author Topic: "I Turn To You" Tabs & powertab  (Read 5562 times)

0 Members and 1 Guest are viewing this topic.

Offline H

  • Full Member
  • ***
  • Posts: 545
  • Karma: 13
  • Gender: Male
  • Gamer. Guitarist. Slacker.
    • My site
"I Turn To You" Tabs & powertab
« on: July 21, 2005, 06:38:14 pm »
Machinae Supremacy - "I Turn To You"

Another of the various works in progress. Rhythm, keyboard part arranged for guitar, & the first 2 solos.

1) Still need to finish adding the rest of the rhythm **Rhythm is done**
2) Need to pick apart the solo to include it. **2/3rds done!**
3) Needs bass, & possibly keyboards at some point.

So yea. Hopefully this sounds pretty close. Trying to pick out those fills were a pain in the arse x_x.

EDIT: Updated the tabs, & the Powertab. I fixed a few mis-tabbed parts. Now they are %100 dead on. :D

At least, I think that they are. If you hear something different being played than what I tabbed, please let me know. o_o

EDIT: Added solos. Woo. :D
« Last Edit: August 01, 2005, 02:24:50 pm by H »
[Comfort the disturbed. Disturb the comfortable]
Crownus

Offline H

  • Full Member
  • ***
  • Posts: 545
  • Karma: 13
  • Gender: Male
  • Gamer. Guitarist. Slacker.
    • My site
Re: "I Turn To You" Powertab
« Reply #1 on: July 22, 2005, 04:35:39 pm »
For those of you without powertab:

Intro Riff
|---------------------------------|--------------------------------|
|-------------------------5-----4-|----3---------------------------|
|-4-----3-----2-----------4-----3-|----2-----------5-----6-----7---|
|-4-----3-----2-----------2-----1-|----0-----------5-----6-----7---|
|-2-----1-----0---0-0-0-0---------|--------0-0-0-0-3-----4-----5---|
|---------------------------------|--------------------------------|





|---------------------------------|-----------------------------------|
|---------------------------------|-----------------------------------|
|---------------------------------|-----------------------------------|
|---------------------------------|-----------------------------------|
|-0h2-2-2-2-2-0h2-2-2-2-2-2-2-2-2-|-0h2-2-2-2-2-0h2-2-2-2-2-2-2-2-2---|
|---------------------------------|-----------------------------------|




Main Riff
| Gtr I
|---------------------------------|-----------------------------------|
|---------------------------------|-----------------------------------|
|---------------------------------|-----------------------------------|
|---------------------------------|-----------------------------------|
|-0h2-2-2-2-2-0h2-2-2-2-2-2-2-2-2-|-0h2-2-2-2-2-0h2-2-2-2-2-2-2-2-2---|
|---------------------------------|-----------------------------------|
|
| Gtr II
|---------------------------------|-----------------------------------|
|---------------------------------|-----------------------------------|
|---------------------------------|-----------------------------------|
|-2h4---------2h4-----------------|-2h4---------2h4-------------------|
|-----2-2-2-2-----2-2-2-2-2-2-2-2-|-----2-2-2-2-----2-2-2-2-2-2-2-2---|
|---------------------------------|-----------------------------------|



| Gtr I
|---------------------------------|-----------------------------------|
|---------------------------------|-----------------------------------|
|---------------------------------|-----------------------------------|
|---------------------------------|-----------------------------------|
|-0h2-2-2-2-2-0h2-2-2-2-2-2-2-2-2-|-0h2-2-2-2-2-0h2-2-2-2-2-2-2-2-2---|
|---------------------------------|-----------------------------------|
|
| Gtr II
|---------------------------------|-----------------------------------|
|---------------------------------|-----------------------------------|
|---------------------------------|-----------------------------------|
|-4h5---------4h5-----------------|-4h5---------4h5-------------------|
|-----2-2-2-2-----2-2-2-2-2-2-2-2-|-----2-2-2-2-----2-2-2-2-2-2-2-2---|
|---------------------------------|-----------------------------------|



Main riff with keyboard
| Gtr I
|---------------------------------|-----------------------------------|
|---------------------------------|-----------------------------------|
|---------------------------------|-----------------------------------|
|---------------------------------|-----------------------------------|
|-0h2-2-2-2-2-0h2-2-2-2-2-2-2-2-2-|-0h2-2-2-2-2-0h2-2-2-2-2-2-2-2-2---|
|---------------------------------|-----------------------------------|
|
| Gtr II
|---------------------------------|-----------------------------------|
|---------------------------------|-----------------------------------|
|---------------------------------|-----------------------------------|
|-2h4---------2h4-----------------|-2h4---------2h4-------------------|
|-----2-2-2-2-----2-2-2-2-2-2-2-2-|-----2-2-2-2-----2-2-2-2-2-2-2-2---|
|---------------------------------|-----------------------------------|
|
| Gtr III (Keyboard - Arranged for 2 guitars)
|-----14-14-14------------14-14-14------|-------------------------------------|
|12--------------12--12--------------12-|-------------------------------------|
|-----11-11-11------------11-11-11------|-------------------------------------|
|-9--------------9---9----------------9-|-------------------------------------|
|---------------------------------------|-------------------------------------|
|---------------------------------------|-------------------------------------|



| Gtr I
|---------------------------------|---------------------------------|
|---------------------------------|---------------------------------|
|---------------------------------|---------------------------------|
|---------------------------------|---------------------------------|
|-0h2-2-2-2-2-0h2-2-2-2-2-2-2-2-2-|-0h2-2-2-2-2-0h2-2-2-2-2-2-2-2-2-|
|---------------------------------|---------------------------------|
|
| Gtr II
|---------------------------------|---------------------------------|
|---------------------------------|---------------------------------|
|---------------------------------|---------------------------------|
|-4h5---------4h5-----------------|-4h5---------4h5-----------------|
|-----2-2-2-2-----2-2-2-2-2-2-2-2-|-----2-2-2-2-----2-2-2-2-2-2-2-2-|
|---------------------------------|---------------------------------|
|
| Gtr III (Keyboard - Arranged for 2 guitars)
|-----15-15-15-------------15-15-15------|--------------------------------------|
|12--------------12---12--------------12-|--------------------------------------|
|-----12-12-12-------------12-12-12------|--------------------------------------|
|-9---------------9----9---------------9-|--------------------------------------|
|----------------------------------------|--------------------------------------|
|----------------------------------------|--------------------------------------|



|----------|-----------|
|----------|-----------|
|----------|-----------|
|-5--------|-2---------|
|-5--------|-2---------|
|-3--------|-0---------|


Repeat main riff


|----------|-----------|
|----------|-----------|
|----------|-2---------|
|-2--------|-2---------|
|-2--------|-0---------|
|-0--------|-----------|


Repeat main riff


Repeat Intro Riff
[Comfort the disturbed. Disturb the comfortable]
Crownus

Offline H

  • Full Member
  • ***
  • Posts: 545
  • Karma: 13
  • Gender: Male
  • Gamer. Guitarist. Slacker.
    • My site
Re: "I Turn To You" powertab
« Reply #2 on: July 22, 2005, 04:38:31 pm »
And some more:

Verse Riffs
|---------------------------------|---------------------------------|
|---------------------------------|---------------------------------|
|---------------------------------|---------------------------------|
|---------------------------------|---------------------------------|
|-0h2-2-2-2-2-0h2-2-2-2---2---2---|-0h2-2-2-2-2-0h2-2-2-2---2---2---|
|---------------------------------|---------------------------------|
|
| Gtr II
|---------------------------------|---------------------------------|
|---------------------------------|---------------------------------|
|---------------------------------|---------------------------------|
|-2h4---------2h4-----------------|-2h4---------2h4-----------------|
|-----2-2-2-2-----2-2-2---2---2---|-----2-2-2-2-----2-2-2---2---2---|
|---------------------------------|---------------------------------|


| Gtr I
|---------------------------------|---------------------------------|
|---------------------------------|---------------------------------|
|---------------------------------|---------------------------------|
|---------------------------------|---------------------------------|
|-0h2-2-2-2-2-0h2-2-2-2---2---2---|-0h2-2-2-2-2-0h2-2-2-2---2---2---|
|---------------------------------|---------------------------------|
|
| Gtr II
|---------------------------------|---------------------------------|
|---------------------------------|---------------------------------|
|---------------------------------|---------------------------------|
|-4h5---------4h5-----------------|-4h5---------4h5-----------------|
|-----2-2-2-2-----2-2-2---2---2---|-----2-2-2-2-----2-2-2---2---2---|
|---------------------------------|---------------------------------|




|---------------------------------|---------------------------------|
|---------------------------------|---------------------------------|
|---------------------------------|---------------------------------|
|---------------------------------|---------------------------------|
|-0h2-2-2-2-2-0h2-2-2-2---2---2---|-0h2-2-2-2-2-0h2-2-2-2---2---2---|
|---------------------------------|---------------------------------|
|
|
|---------------------------------|---------------------------------|
|---------------------------------|---------------------------------|
|---------------------------------|---------------------------------|
|-2h4---------2h4-----------------|-2h4---------2h4-----------------|
|-----2-2-2-2-----2-2-2---2---2---|-----2-2-2-2-----2-2-2---2---2---|
|---------------------------------|---------------------------------|
|
| Keyboard (Arranged for 2 guitars) 
|-14--------10---14--------10---14--------|-14--------10---14--------10---14--------|
|------12-------------12-------------12---|------12-------------12-------------12---|
|-11---------7---11---------7---11--------|-11---------7---11---------7---11--------|
|-------9--------------9--------------9---|-------9--------------9--------------9---|
|-----------------------------------------|-----------------------------------------|
|-----------------------------------------|-----------------------------------------|




|---------------------------------|---------------------------------|
|---------------------------------|---------------------------------|
|---------------------------------|---------------------------------|
|---------------------------------|---------------------------------|
|-0h2-2-2-2-2-0h2-2-2-2---2---2---|-0h2-2-2-2-2-0h2-2-2-2---2---2---|
|---------------------------------|---------------------------------|
|
|
|---------------------------------|---------------------------------|
|---------------------------------|---------------------------------|
|---------------------------------|---------------------------------|
|-4h5---------4h5-----------------|-4h5---------4h5-----------------|
|-----2-2-2-2-----2-2-2---2---2---|-----2-2-2-2-----2-2-2---2---2---|
|---------------------------------|---------------------------------|
|
|
|-15--------12---15--------12---15--------|-15--------12---15--------12---15--------|
|------12-------------12-------------12---|------12-------------12-------------12---|
|-12---------9---12---------9---12--------|-12---------9---12---------9---12--------|
|-------9--------------9--------------9---|-------9--------------9--------------9---|
|-----------------------------------------|-----------------------------------------|
|-----------------------------------------|-----------------------------------------|



|---------------------------------|---------------------------------|
|---------------------------------|---------------------------------|
|---------------------------------|---------------------------------|
|---------------------------------|---------------------------------|
|-0h2-2-2-2-2-0h2-2-2-2---2---2---|-0h2-2-2-2-2-0h2-2-2-2---2---2---|
|---------------------------------|---------------------------------|
|
|
|---------------------------------|---------------------------------|
|---------------------------------|---------------------------------|
|---------------------------------|---------------------------------|
|-2h4---------2h4-----------------|-2h4---------2h4-----------------|
|-----2-2-2-2-----2-2-2---2---2---|-----2-2-2-2-----2-2-2---2---2---|
|---------------------------------|---------------------------------|
|
|
|-14--------10---14--------10---14--------|-14--------10---14--------10---14--------|
|------12-------------12-------------12---|------12-------------12-------------12---|
|-11---------7---11---------7---11--------|-11---------7---11---------7---11--------|
|-------9--------------9--------------9---|-------9--------------9--------------9---|
|-----------------------------------------|-----------------------------------------|
|-----------------------------------------|-----------------------------------------|




|----------------------------------------|---------------------------------|
|----------------------------------------|-5-3-2-0-------------------------|
|----------------------------------------|---------2-4-2-0-----------------|
|----------------------------------------|-----------------4-5-4-2---------|
|--0h2--2-2-2-2--0h2--2-2--2----2----2---|-------------------------4-5-4-2-|
|----------------------------------------|---------------------------------|
|
|
|----------------------------------------|-----------------------------------------|
|----------------------------------------|-----------------------------------------|
|----------------------------------------|-12-11-9---------------------------------|
|--4h5-----------4h5---------------------|---------12-11-12-11-9-7-9-7-------------|
|-------2-2-2-2-------2-2--2----2----2---|-----------------------------10-9-10-9-7-|
|----------------------------------------|-----------------------------------------|
|
|
|-15--------12---15--------12---15-------|-----------------------------------------|
|------12-------------12-------------12--|-----------------------------------------|
|-12---------9---12---------9---12-------|-----------------------------------------|
|-------9--------------9--------------9--|-----------------------------------------|
|----------------------------------------|-----------------------------------------|
|----------------------------------------|-----------------------------------------|
« Last Edit: July 28, 2005, 04:21:35 pm by H »
[Comfort the disturbed. Disturb the comfortable]
Crownus

Offline H

  • Full Member
  • ***
  • Posts: 545
  • Karma: 13
  • Gender: Male
  • Gamer. Guitarist. Slacker.
    • My site
Re: "I Turn To You" powertab
« Reply #3 on: July 22, 2005, 04:39:24 pm »
One more:

Chorus Riffs
|----------|-----------|
|----------|-----------|
|----------|-----------|
|-5--------|-2---------|
|-5--------|-2---------|
|-3--------|-0---------|


Repeat main riff


|----------|-----------|
|----------|-----------|
|----------|-2---------|
|-2--------|-2---------|
|-2--------|-0---------|
|-0--------|-----------|


|---------------------------------|-----------------------------------|
|---------------------------------|-----------------------------------|
|---------------------------------|-----------------------------------|
|---------------------------------|-----------------5-0-4-0-2-0-------|
|-0h2-2-2-2-2-0h2-2-2-2-2-2-2-2-2-|-4-2-0-5-4-0-2-0-------------4-5---|
|---------------------------------|-----------------------------------|
|
|
|---------------------------------|-----------------------------------|
|---------------------------------|-----------------------------------|
|---------------------------------|-----------------------------------|
|-2h4---------2h4-----------------|-----------------5-0-4-0-2-0-------|
|-----2-2-2-2-----2-2-2-2-2-2-2-2-|-4-2-0-5-4-0-2-0-------------4-5---|
|---------------------------------|-----------------------------------|


|----------|----------|
|----------|----------|
|----------|-2--------|
|-5--------|-2--------|
|-5--------|-0--------|
|-3--------|----------|


|---------------------------------|-----------------------------------|
|---------------------------------|-----------------------------------|
|---------------------------------|-----------------------------------|
|---------------------------------|-----------------5-0-4-0-2-0-------|
|-0h2-2-2-2-2-0h2-2-2-2-2-2-2-2-2-|-4-2-0-5-4-0-2-0-------------4-5---|
|---------------------------------|-----------------------------------|
|
|
|---------------------------------|-----------------------------------|
|---------------------------------|-----------------------------------|
|---------------------------------|-----------------------------------|
|-2h4---------2h4-----------------|-----------------5-0-4-0-2-0-------|
|-----2-2-2-2-----2-2-2-2-2-2-2-2-|-4-2-0-5-4-0-2-0-------------4-5---|
|---------------------------------|-----------------------------------|


|---------|---------|
|---------|---------|
|-2-------|---------|
|-2-------|-2-------|
|-0-------|---------|
|---------|-3-------|


Repeat Main Riff


|----------|-----------|
|----------|-----------|
|----------|-----------|
|-5--------|-2---------|
|-5--------|-2---------|
|-3--------|-0---------|


Repeat main riff


|----------|-----------|
|----------|-----------|
|----------|-2---------|
|-2--------|-2---------|
|-2--------|-0---------|
|-0--------|-----------|


|---------------------------------|---------------------------------|
|---------------------------------|---------------------------------|
|---------------------------------|------------------5----6----7----|
|---------------------------------|------------------5----6----7----|
|-0h2-2-2-2-2-0h2-2-2-2-2-2-2-2-2-|-0h2-2-2-2-2-2-2--3----4----5----|
|---------------------------------|---------------------------------|
|
|
|---------------------------------|---------------------------------|
|---------------------------------|---------------------------------|
|---------------------------------|------------------5----6----7----|
|-2h4---------2h4-----------------|-2h4--------------5----6----7----|
|-----2-2-2-2-----2-2-2-2-2-2-2-2-|-----2-2-2-2-2-2--3----4----5----|
|---------------------------------|---------------------------------|
« Last Edit: July 28, 2005, 03:33:09 pm by H »
[Comfort the disturbed. Disturb the comfortable]
Crownus

Offline H

  • Full Member
  • ***
  • Posts: 545
  • Karma: 13
  • Gender: Male
  • Gamer. Guitarist. Slacker.
    • My site
Re: "I Turn To You" Tabs & powertab
« Reply #4 on: July 28, 2005, 03:52:57 pm »
July 28:

Update. Here are the rhythms under the solo:

Solo Rhythm
|--------------------------|--------------------------|
|--------------------------|--------------------------|
|--------------------------|--------------------------|
|-6----6----6--6----6----6-|-6----6----6--6----6----6-|
|-6----6----6--6----6----6-|-6----6----6--6----6----6-|
|-4----4----4--4----4----4-|-4----4----4--4----4----4-|


|--------------------------|--------------------------|
|--------------------------|--------------------------|
|--------------------------|--------------------------|
|-4----4----4--4----4----4-|-4----4----4--4----4----4-|
|-4----4----4--4----4----4-|-4----4----4--4----4----4-|
|-2----2----2--2----2----2-|-2----2----2--2----2----2-|


|--------------------------|--------------------------|
|--------------------------|--------------------------|
|-6----6----6--6----6----6-|-6----6----6--6----6----6-|
|-6----6----6--6----6----6-|-6----6----6--6----6----6-|
|-4----4----4--4----4----4-|-4----4----4--4----4----4-|
|--------------------------|--------------------------|


|--------------------------|--------------------------|
|--------------------------|--------------------------|
|--------------------------|--------------------------|
|-6----6----6--6----6----6-|-6----6----6--6----4----3-|
|-6----6----6--6----6----6-|-6----6----6--6----4----3-|
|-4----4----4--4----4----4-|-4----4----4--4----2----1-|


|--------------------------|--------------------------|
|--------------------------|--------------------------|
|--------------------------|-6----6----6--6----6----6-|
|-2----2----2--2----2----2-|-6----6----6--6----6----6-|
|-2----2----2--2----2----2-|-4----4----4--4----4----4-|
|-0----0----0--0----0----0-|--------------------------|


|--------------------------|--------------------------|
|--------------------------|--------------------------|
|--------------------------|--------------------------|
|-7----7----7--7----7----7-|-4----4----4--4----4----4-|
|-7----7----7--7----7----7-|-4----4----4--4----4----4-|
|-5----5----5--5----5----5-|-2----2----2--2----2----2-|



Repeat Main Riff


Repeat Chorus Riffs, then play this variation at the end

|---------------------------------|--------------------------|
|---------------------------------|--------------------------|
|---------------------------------|-4----3----2--------------|
|---------------------------------|-4----3----2----2---4---2-|
|-0h2-2-2-2-2-0h2-2-2-2-2-2-2-2-2-|-2----1----0----2---4---2-|
|---------------------------------|----------------0---2---0-|
|
|
|---------------------------------|--------------------------|
|---------------------------------|--------------------------|
|---------------------------------|-4----3----2--------------|
|-2h4---------2h4-----------------|-4----3----2----2---4---2-|
|-----2-2-2-2-----2-2-2-2-2-2-2-2-|-2----1----0----2---4---2-|
|---------------------------------|----------------0---2---0-|
[Comfort the disturbed. Disturb the comfortable]
Crownus

Offline H

  • Full Member
  • ***
  • Posts: 545
  • Karma: 13
  • Gender: Male
  • Gamer. Guitarist. Slacker.
    • My site
Re: "I Turn To You" Tabs & powertab
« Reply #5 on: July 28, 2005, 03:59:53 pm »
Accoustic Break:

  Gtr IV
|-3-----3-----3---|---3-----5-----5-|-2-----2-----2---|---2-----3-----3-|
|---3-----3-----3-|-----3-----3-----|---3-----3-----3-|-----3-----3-----|
|-----0-----0-----|-0-----0-----0---|-----2-----2-----|-2-----2-----2---|
|-----------------|-----------------|-----------------|-----------------|
|-----------------|-----------------|-----------------|-----------------|
|-----------------|-----------------|-----------------|-----------------|
|
| Gtr V
|-3---3-3-3-3-3-3-|-3-3-3-3-3-3-3-3-|-2---2-2-2-2-2-2-|-2-2-2-2-2-2-2-2-|
|-3---3-3-3-3-3-3-|-3-3-3-3-3-3-3-3-|-3---3-3-3-3-3-3-|-3-3-3-3-3-3-3-3-|
|-0---0-0-0-0-0-0-|-0-0-0-0-0-0-0-0-|-2---2-2-2-2-2-2-|-2-2-2-2-2-2-2-2-|
|-0---0-0-0-0-0-0-|-0-0-0-0-0-0-0-0-|-0---0-0-0-0-0-0-|-0-0-0-0-0-0-0-0-|
|-----------------|-----------------|-----------------|-----------------|
|-----------------|-----------------|-----------------|-----------------|


|-0-----0-----0---|---0-----2-----2-|-0-----0-----0---|---0-----2-----2-|
|---0-----0-----0-|-----0-----0-----|---2-----2-----2-|-----2-----2-----|
|-----0-----0-----|-0-----0-----0---|-----2-----2-----|-2-----2-----2---|
|-----------------|-----------------|-----------------|-----------------|
|-----------------|-----------------|-----------------|-----------------|
|-----------------|-----------------|-----------------|-----------------|
|
|-0---0-0-0-0-0-0-|-0-0-0-0-0-0-0-0-|-0---0-0-0-0-0-0-|-0-0-0-0-0-0-0-0-|
|-0---0-0-0-0-0-0-|-0-0-0-0-0-0-0-0-|-2---2-2-2-2-2-2-|-2-2-2-2-2-2-2-2-|
|-0---0-0-0-0-0-0-|-0-0-0-0-0-0-0-0-|-2---2-2-2-2-2-2-|-2-2-2-2-2-2-2-2-|
|-0---0-0-0-0-0-0-|-0-0-0-0-0-0-0-0-|-2---2-2-2-2-2-2-|-2-2-2-2-2-2-2-2-|
|-----------------|-----------------|-----------------|-----------------|
|-----------------|-----------------|-----------------|-----------------|


|-3-----3-----3---|---3-----5-----5-|-2-----2-----2---|---2-----3-----3-|
|---3-----3-----3-|-----3-----3-----|---3-----3-----3-|-----3-----3-----|
|-----0-----0-----|-0-----0-----0---|-----2-----2-----|-2-----2-----2---|
|-----------------|-----------------|-----------------|-----------------|
|-----------------|-----------------|-----------------|-----------------|
|-----------------|-----------------|-----------------|-----------------|
|
|-3---3-3-3-3-3-3-|-3-3-3-3-3-3-3-3-|-2---2-2-2-2-2-2-|-2-2-2-2-2-2-2-2-|
|-3---3-3-3-3-3-3-|-3-3-3-3-3-3-3-3-|-3---3-3-3-3-3-3-|-3-3-3-3-3-3-3-3-|
|-0---0-0-0-0-0-0-|-0-0-0-0-0-0-0-0-|-2---2-2-2-2-2-2-|-2-2-2-2-2-2-2-2-|
|-0---0-0-0-0-0-0-|-0-0-0-0-0-0-0-0-|-0---0-0-0-0-0-0-|-0-0-0-0-0-0-0-0-|
|-----------------|-----------------|-----------------|-----------------|
|-----------------|-----------------|-----------------|-----------------|

                                     Gtr I
|-3-----3-----3---|---3-----5-----5-|--------------------------|--------------------------|
|---3-----3-----3-|-----3-----3-----|--------------------------|--------------------------|
|-----0-----0-----|-0-----0-----0---|-2----2----2--2----2----2-|-2----2----2--2----2----2-|
|-----------------|-----------------|-2----2----2--2----2----2-|-2----2----2--2----2----2-|
|-----------------|-----------------|-0----0----0--0----0----0-|-0----0----0--0----0----0-|
|-----------------|-----------------|--------------------------|--------------------------|
|                                    Gtr II
|-3---3-3-3-3-3-3-|-3-3-3-3-3-3-3-3-|--------------------------|--------------------------|
|-3---3-3-3-3-3-3-|-3-3-3-3-3-3-3-3-|--------------------------|--------------------------|
|-0---0-0-0-0-0-0-|-0-0-0-0-0-0-0-0-|-2----2----2--2----2----2-|-2----2----2--2----2----2-|
|-0---0-0-0-0-0-0-|-0-0-0-0-0-0-0-0-|-2----2----2--2----2----2-|-2----2----2--2----2----2-|
|-----------------|-----------------|-0----0----0--0----0----0-|-0----0----0--0----0----0-|
|-----------------|-----------------|--------------------------|--------------------------|
« Last Edit: July 28, 2005, 04:02:10 pm by H »
[Comfort the disturbed. Disturb the comfortable]
Crownus

Offline H

  • Full Member
  • ***
  • Posts: 545
  • Karma: 13
  • Gender: Male
  • Gamer. Guitarist. Slacker.
    • My site
Re: "I Turn To You" Tabs & powertab
« Reply #6 on: July 28, 2005, 04:17:23 pm »
Here's the last bit of rhythm:

Repeat beginning Keyboard riff twice

Repeat Verse riffs 5 times, then play this variation:
                                             |-Pick-Slide----------|
|--------------------------------|--------------------------------------|
|--------------------------------|--------------------------------------|
|--------------------------------|-4---4--------------------------------|
|--------------------------------|-4---4--------------------------------|
|-0h2-2-2-2-2-0h2-2-2-2---2---2--|-2---2--------------------------------|
|--------------------------------|-----------x-x-x-x-x-x-x-x-x-x-x-x----|
|
|                                            |-Pick-Slide----------|
|--------------------------------|--------------------------------------|
|--------------------------------|--------------------------------------|
|--------------------------------|-4---4--------------------------------|
|-4h5---------4h5----------------|-4---4--------------------------------|
|-----2-2-2-2-----2-2-2---2---2--|-2---2--------------------------------|
|--------------------------------|-----------x-x-x-x-x-x-x-x-x-x-x-x----|


Repeat Chorus Riffs


|---------|---------|
|---------|---------|
|-2-------|---------|
|-2-------|-2-------|
|-0-------|---------|
|---------|-3-------|


Outro Riff
|---------------------|---------------------|
|---------------------|---------------------|
|---------------------|-9---8---7---6---5-4-|
|-9---8---7---6---5-4-|-9---8---7---6---5-4-|
|-9---8---7---6---5-4-|-7---6---5---4---3-2-|
|-7---6---5---4---3-2-|---------------------|


Hooray. ;D

BTW: in case you didn't notice, I left out the 2nd verse. But with what I have tabbed out already, you should be able to figure it out :P

It's included in the powertab tho ;)
« Last Edit: July 28, 2005, 04:30:00 pm by H »
[Comfort the disturbed. Disturb the comfortable]
Crownus

Offline Xeero

  • Jr. Member
  • **
  • Posts: 193
  • Karma: 3
  • Gender: Male
  • Awesome!
    • The Exclaimers?
Re: "I Turn To You" Tabs & powertab
« Reply #7 on: July 29, 2005, 10:22:51 am »
You're crazy, that's a wicked job.

Offline H

  • Full Member
  • ***
  • Posts: 545
  • Karma: 13
  • Gender: Male
  • Gamer. Guitarist. Slacker.
    • My site
Re: "I Turn To You" Tabs & powertab
« Reply #8 on: July 29, 2005, 03:43:49 pm »
Thanks, for both statements ;D
[Comfort the disturbed. Disturb the comfortable]
Crownus

Offline Outboundlight

  • Renegade Anarchist Folk Hero
  • Global Moderator
  • Machinae Prime
  • *****
  • Posts: 7752
  • Karma: 152
  • Gender: Male
  • Rogue World Asylum Seeker
    • No Art Films
Re: "I Turn To You" Tabs & powertab
« Reply #9 on: July 30, 2005, 08:08:05 pm »
nicely done man.

Offline H

  • Full Member
  • ***
  • Posts: 545
  • Karma: 13
  • Gender: Male
  • Gamer. Guitarist. Slacker.
    • My site
Re: "I Turn To You" Tabs & powertab
« Reply #10 on: July 31, 2005, 04:55:34 pm »
Thank You much, bro :)

I am having a lot of fun picking this song apart, tabbing it out, & posting it here for you all to check out. It's real good practice for the ear. ;D

Newest update: I have managed (somehow!) to decipher the first 2 solos of the song. I am only missing the solo that start's 3:14. I will try to decipher it in the near future.

In the meantime tho, I have updated the powertab to include the solos. When I get home from work tomorrow, I will update the tab itself for those of you who don't have powertab. :)
[Comfort the disturbed. Disturb the comfortable]
Crownus

Offline H

  • Full Member
  • ***
  • Posts: 545
  • Karma: 13
  • Gender: Male
  • Gamer. Guitarist. Slacker.
    • My site
Re: "I Turn To You" Tabs & powertab
« Reply #11 on: August 01, 2005, 02:23:17 pm »
For those without powertab, the first 2 solos:

First solo: 
|--------------------|------------------------------|
|--------------------|-10h12--10h12--12-10----------|
|-7h9--7h9--7--------|----------------------12-11---|
|-------------10-9-7-|------------------------------|
|--------------------|------------------------------|
|--------------------|------------------------------|

                         |-3-|                          |-3--|
|-12------10--9--10-------------------|-10-7-9-7-----------------------------|
|-----------------------10-8-7--------|----------10-7-8-7-8-10-8-7-----------|
|-------------------------------------|----------------------------9-7-5-----|
|-------------------------------------|----------------------------------9-7-|
|-------------------------------------|--------------------------------------|
|-------------------------------------|--------------------------------------|

                |--3--|        |--3--|          |--3--|        |--3--|
|--------------------------------------|---------------------------------19----19-19---|
|--------------------------------------|----------------12-14-12-14-15---19----19-19---|
|--------------------------------------|-12-14-12-14-15--------------------------------|
|-5---------------------12-14-12-14-15-|-----------------------------------------------|
|--------------12-14-15----------------|-----------------------------------------------|
|--------------------------------------|-----------------------------------------------|


                    \1 = tremolo bar dive down 1 step
|-19---------------(19)---------------|------------------------------------------------|
|-19---------------(19)---------------|------------------------------------------------|
|-------------------------------------|------------------------------------------------|
|-------------------------------------|------------------------------------------------|
|-------------------------------------|------------------------------------------------|
|-------------------------------------|------------------------------------------------|




Second solo:
|--------------------|-------------------------|-----------------------|-----------------------|
|-9----7h9-----9--11-|-12---11---9-7---9---7---|-7---9---9-------------|-----------------------|
|--------------------|-------------------------|------------------8--9-|-11---9---8-6--------6-|
|--------------------|-------------------------|-----------------------|-----------------9-----|
|--------------------|-------------------------|-----------------------|-----------------------|
|--------------------|-------------------------|-----------------------|-----------------------|

T=tap, P=pull, b=bend, r=release    T      T      T    T            T
|---------------------------------|----------------------------------------|
|---------------------------------|----------------------------------------|
|-8-----------6-4-6-----------4h6-|-8p6p4--9p6p4--11p6-12b13r12p6p4-11p6p4-|
|---------------------------------|----------------------------------------|
|---------------------------------|----------------------------------------|
|---------------------------------|----------------------------------------|

              |-3-|                |-3-|                    |-3--|                |-3-|
|----------------------------------------|----------------------------------------------|
|-9p7p5-9p7p5-9p7p5-11p9p7-11p9p7-11p9p7-|-12p11p9-12p11p9-12p11p9-12p11p9-11p9p7-9p7p5-|
|----------------------------------------|----------------------------------------------|
|----------------------------------------|----------------------------------------------|
|----------------------------------------|----------------------------------------------|
|----------------------------------------|----------------------------------------------|

                                                                slide
|--------------|-------------------------|------------------------|-------------------------------|
|-9------------|-------------------------|------------------------|---------12--------------------|
|------8--8--9-|-11----11--11---9----8---|-6---8--------6--(6)/---|-/13--------13-----11--9-------|
|--------------|-------------------------|-----------9------------|-------------------------------|
|--------------|-------------------------|------------------------|-------------------------------|
|--------------|-------------------------|------------------------|-------------------------------|

  //Tremolo picked     //Tremolo picked     //Tremolo picked     //T.P.      slide out
|--------------------|--------------------|--------------------|--------------------|
|-12-----------------|-12-----------------|-12-----------------|-12----------12\----|
|-11-----------------|-11-----------------|-12-----------------|-12----------12\----|
|--------------------|--------------------|--------------------|--------------------|
|--------------------|--------------------|--------------------|--------------------|
|--------------------|--------------------|--------------------|--------------------|
[Comfort the disturbed. Disturb the comfortable]
Crownus