Author Topic: Tab: Theme from Jet's n Guns  (Read 5346 times)

0 Members and 1 Guest are viewing this topic.

Offline Lord-Judge

  • Newbie
  • *
  • Posts: 2
  • Karma: 0
Tab: Theme from Jet's n Guns
« on: July 21, 2005, 03:44:46 pm »
Hoi, It took some time, but now I got the important parts of this song.
But I've problems with the rest of it. So if you have some data left, tell me pls :)
(I hope there is nothing wrong, if I put the tab right here, correct me if I shouldn't do this...)


Legend
------

 h  = hammer-on
 p  = pull-off
 /  = slide up/down
 ~  = vibrato




Intro
E|------------------|
H|------------------|
G|------------------|
D|-4-4-4---4-4-4----|
A|-4-4-4---4-4-4----|
E|-2-2-2-2-2-2-2-2--|



Part 1
E|------------------------9h11--------|------9----9~~~~-9h10p9----------------|
H|----9/10--------9-10---------12~~~~-|10h12---10--------------10-12~~~~------|
G|---------9-11~~------11-------------|----------------------------------9----|
D|------------------------------------|------------------------------------11-|
A|------------------------------------|---------------------------------------|
E|------------------------------------|---------------------------------------|


E|-------------------------9h11-------|------9-----------------------------|
H|-----9-10--------9-10---------12~~~~|10-12---10~~-9h10------9h10---------|
G|--11------9-11~~------11------------|------------------9------------9-11-|
D|------------------------------------|--------------------11------11------|
A|------------------------------------|------------------------------------|
E|------------------------------------|------------------------------------|




crossing Part 1 part 2, very fast
E|---------------9h11p9-|
H|-------9-10-12--------|
G|--9-11----------------|
D|----------------------|
A|----------------------|
E|----------------------|




Part 2
E|---------------------------11h12--------|-------11----11~~~~~~-11h12p11---------------|
H|----11/12---------11-12----------14~~~~-|-12h14----12-------------------12-14~~-------|
G|----------11-13~~-------13--------------|---------------------------------------11----|
D|----------------------------------------|------------------------------------------13-|
A|----------------------------------------|---------------------------------------------|
E|----------------------------------------|---------------------------------------------|


E|---------------------------11h12--------|-------11-----------------------------------|
H|----11-12---------11-12----------14~~~~-|-12h14----12-11h12-------11h12--------------|
G|-13-------11-13~~-------13--------------|-------------------11-------------11-13~~~~-|
D|----------------------------------------|----------------------13-------13-----------|
A|----------------------------------------|--------------------------------------------|
E|----------------------------------------|--------------------------------------------|


So, what ya think :) am I right?

Offline H

  • Full Member
  • ***
  • Posts: 545
  • Karma: 13
  • Gender: Male
  • Gamer. Guitarist. Slacker.
    • My site
Re: Tab: Theme from Jet's n Guns
« Reply #1 on: July 21, 2005, 06:33:45 pm »
Looks ok, but listening to the mp3 for "Theme from Jet's n' Guns", it sounds like there is a lot more going on in the intro than just:

Intro
E|------------------|
H|------------------|
G|------------------|
D|-4-4-4---4-4-4----|
A|-4-4-4---4-4-4----|
E|-2-2-2-2-2-2-2-2--|


I will give it a more thorough look after I've had some sleep (=_=)

The lead looks ok tho :)
[Comfort the disturbed. Disturb the comfortable]
Crownus

Offline Xeero

  • Jr. Member
  • **
  • Posts: 193
  • Karma: 3
  • Gender: Male
  • Awesome!
    • The Exclaimers?
Re: Tab: Theme from Jet's n Guns
« Reply #2 on: July 21, 2005, 11:19:26 pm »
I have a GP4 of the Theme, actually.

http://www.atgig.com/TheExclaimers/xeero/JnG.rar

I dunno if you want the whole tab or you're just testing out your tabbing skills *shrug*

Offline Lord-Judge

  • Newbie
  • *
  • Posts: 2
  • Karma: 0
Re: Tab: Theme from Jet's n Guns
« Reply #3 on: July 22, 2005, 12:33:38 pm »
Quote
it sounds like there is a lot more going on in the intro than just:
for sure, ... I deleted the "???" from my printings. But that's only what I get...

Quote
I have a GP4 of the Theme, actually.
thanks, ... now I need gp4 first ;)
hehe, I think I try both. Wanna play the whole song, and try my tabbing skills  8)


Offline Tritox

  • Jr. Member
  • **
  • Posts: 206
  • Karma: 14
  • Gender: Male
  • Nuuh
Re: Tab: Theme from Jet's n Guns
« Reply #4 on: August 20, 2005, 07:28:50 pm »
Here's my, somewhat old, version from this song...

http://www.student.oulu.fi/~arilavan/tabs/machinae_supremacy-jng_main_theme.gp4

Solo is missing and tab isn't complete and it has bugs, but maybe it helps. :)

Offline Ipster

  • Newbie
  • *
  • Posts: 6
  • Karma: 0
  • I'm a llama!
Re: Tab: Theme from Jet's n Guns
« Reply #5 on: August 25, 2005, 08:40:00 pm »
Cool stuff. Hey Xeero, that link isn't working. Was the solo in that tab?

Offline Xeero

  • Jr. Member
  • **
  • Posts: 193
  • Karma: 3
  • Gender: Male
  • Awesome!
    • The Exclaimers?
Re: Tab: Theme from Jet's n Guns
« Reply #6 on: August 26, 2005, 07:37:55 am »
No, the solo wasn't in it because the solo is too fucking crazy.

MDX

  • Guest
Re: Tab: Theme from Jet's n Guns
« Reply #7 on: August 26, 2005, 11:45:25 pm »
Good Times.

Infact that reminds me i covered this song ages ago, recorded it n all, fucking r0cked, also covered that song with the evil kinda synth going on at the start.. cant remember its name, its Machinaes work.

EDIT: LEGION OF STOOPID! My oh my how that cover rocked, ill maybe finish it one day.
« Last Edit: August 27, 2005, 05:54:53 pm by megadokyo »

Offline Xeero

  • Jr. Member
  • **
  • Posts: 193
  • Karma: 3
  • Gender: Male
  • Awesome!
    • The Exclaimers?
Re: Tab: Theme from Jet's n Guns
« Reply #8 on: August 28, 2005, 09:15:45 am »
Maybe you'll post it too.  RIGHT.

Offline Elvenfox

  • Newbie
  • *
  • Posts: 9
  • Karma: 0
  • Gender: Male
Re: Tab: Theme from Jet's n Guns
« Reply #9 on: June 14, 2006, 08:14:13 pm »
Hello gyus, I've done the tab, didn't see someone did this, but still, maybe someone'll need it. If someone can, help please with keyboards part, i can't tab this, there is an arpeggiator, i guess :)

And just rename file to *.gp4
Soundstorm's Spy

Offline Elvenfox

  • Newbie
  • *
  • Posts: 9
  • Karma: 0
  • Gender: Male
Re: Tab: Theme from Jet's n Guns
« Reply #10 on: June 16, 2006, 02:10:29 pm »
hey, is the link i posted working well?
Soundstorm's Spy

MDX

  • Guest
Re: Tab: Theme from Jet's n Guns
« Reply #11 on: June 16, 2006, 08:32:38 pm »
Maybe you'll post it too.  RIGHT.

alas, no.

plus i dont have my synth atm, well i do, but i have no adapter or leads for it, so frustrating when i want to do stuff.. which is rare lately actually, so nevermind. wish me luck for grade 5 theory exam tomorrow! first time ever doing a theory exam!