Author Topic: Masquerade Tabs & Powertab file  (Read 5894 times)

0 Members and 1 Guest are viewing this topic.

Offline H

  • Full Member
  • ***
  • Posts: 545
  • Karma: 13
  • Gender: Male
  • Gamer. Guitarist. Slacker.
    • My site
Masquerade Tabs & Powertab file
« on: July 17, 2005, 04:15:34 pm »
Didn't know if anyone else attempted to tab this one out, so I went ahead & did it :) No solo yet, unfortunately. But as soon as I can pick it apart, I will update the tab :)

Machinae Supremacy - "Masquerade"

|Intro: (Heavy Chorus effect)
|-----------------|-----------------|-----------------|-----------------|
|-----------------|-----------------|-----------------|-----------------|
|-----------------|-----------------|-----------------|-----------------|
|-2-------2-------|-2-------9-------|-2-------2-------|-2-------9-------|
|-2-------2-------|-2-------9-------|-2-------2-------|-2-------9-------|
|-0-0-0-0-0-0-0-0-|-0-0-0-0-7p0-0-0-|-0-0-0-0-0-0-0-0-|-0-0-0-0-7p0-0-0-|
|
|
|   
|-----------------|-----------------|-----------------|-----------------|
|-----------------|-----------------|-----------------|-----------------|
|-----------------|-----------------|-----------------|-----------------|
|-2-------2-------|-2-------9-------|-2-------2-------|-2-------2-------|
|-2-------2-------|-2-------9-------|-2-------2-------|-2-------2-------|
|-0-0-0-0-0-0-0-0-|-0-0-0-0-7p0-0-0-|-0-0-0-0-0-0-0-0-|-0-0-0-0-0-0-0---|
|
|
|
|
|
|
|Chorus Off:
|Gtr I - Rhythm
|------------------------|------------------------|------------------------|------------------------|
|------------------------|------------------------|------------------------|------------------------|
|------------------------|------------------------|------------------------|------------------------|
|-5--5--5--5--5--5--5--5-|-5--5--5--5--5--5--5--5-|-9--9--9--9--9--9--9--9-|-9--9-----7-----5-----4-|
|-5--5--5--5--5--5--5--5-|-5--5--5--5--5--5--5--5-|-9--9--9--9--9--9--9--9-|-9--9-----7-----5-----4-|
|-3--3--3--3--3--3--3--3-|-3--3--3--3--3--3--3--3-|-7--7--7--7--7--7--7--7-|-7--7-----5-----3-----2-|
|
|Gtr II - Keyboard (Arranged for guitar)
|------------------------|------------------------|------------------------|------------------------|
|------------------------|------------------------|------------------------|------------------------|
|-16-16-16-14-16-14-11~~~|~~~-14~~-12-14-12-11-12-|-16-16-16-14-16-14-11~~~|~~~12----14----16----17-|
|------------------------|------------------------|------------------------|------------------------|
|-14-14-14-12-14-12--9~~~|~~~-12~~-10-12-10--9-10-|-14-14-14-12-14-12--9~~~|~~~10----12----14----15-|
|------------------------|------------------------|------------------------|------------------------|
|
|
|
|
|
|
||-------------------------|------------------------|------------------------|------------------------|
||o------------------------|------------------------|------------------------|------------------------|
||-------------------------|------------------------|------------------------|------------------------|
||--2--2--2--2--2--2--2--2-|-2--2--2--2--2--2--2--2-|-2--2--2--2--2--2--2--2-|-2--2--2--2--2--2--2--2-|
||o-2--2--2--2--2--2--2--2-|-2--2--2--2--2--2--2--2-|-2--2--2--2--2--2--2--2-|-2--2--2--2--2--2--2--2-|
||--0--0--0--0--0--0--0--0-|-0--0--0--0--0--0--0--0-|-0--0--0--0--0--0--0--0-|-0--0--0--0--0--0--0--0-|
|
|
||-------------------------|------------------------|------------------------|------------------------|
||o------------------------|------------------------|------------------------|------------------------|
||--16-16-16-14-16-14-11~~~|~~~-14~~-12-14-12-11-12-|-16-16-16-14-16-14-11~~~|~~~-14~~-12-14-12-11-12-|
||-------------------------|------------------------|------------------------|------------------------|
||o-14-14-14-12-14-12--9~~~|~~~-12~~-10-12-10--9-10-|-14-14-14-12-14-12--9~~~|~~~-12~~-10-12-10--9-10-|
||-------------------------|------------------------|------------------------|------------------------|
|
|
|
|
|
|
|------------------------|------------------------|------------------------|-------------------------||
|------------------------|------------------------|------------------------|------------------------o||
|------------------------|------------------------|------------------------|-------------------------||
|------------------------|------------------------|------------------------|-------------------------||
|-2--2--2--2--2--2--2--2-|-2--2--2--2--2--2--2--2-|-6--6--6--6--6--6--6--6-|-6--6--6--6--6--6--6--6-o||
|-3--3--3--3--3--3--3--3-|-3--3--3--3--3--3--3--3-|-7--7--7--7--7--7--7--7-|-7--7--7--7--7--7--7--7--||
|
|
|------------------------|------------------------|------------------------|-------------------------||
|------------------------|------------------------|------------------------|------------------------o||
|-16-16-16-14-16-14-11~~~|~~~-14~~-12-14-12-11-12-|-16-16-16-14-16-14-11~~~|~~~12----14----16----17--||
|------------------------|------------------------|------------------------|-------------------------||
|-14-14-14-12-14-12--9~~~|~~~-12~~-10-12-10--9-10-|-14-14-14-12-14-12--9~~~|~~~10----12----14----15-o||
|------------------------|------------------------|------------------------|-------------------------|| Repeat 2x
|
|
|
|
|
|Verse riff:
||------------------|-----------------|-----------------|-----------------|
||o-----------------|-----------------|-----------------|-----------------|
||------------------|-----------------|-----------------|-----------------|
||--2-------4-------|-5-------7-----7-|-9-------4-------|-5-------7-----9-|
||o-2-------7-------|-7-------7-----7-|-7-------7-------|-7-------7-----7-|
||--0-0-0-0---0-0-0-|---0-0-0---0-0---|---0-0-0---0-0-0-|---0-0-0---0-0---|
|
|
|-----------------|-----------------|-----------------|------------------||
|-----------------|-----------------|-----------------|-----------------o||
|-----------------|-----------------|-4-------4-------|-4-------4--------||
|-5-------4-------|-5-------4-------|-5-------4-------|-5-------4--------||
|-5-------5-------|-5-------5-------|---2-2-2---2-2-2-|---2-2-2---2-2-2-o||
|---3-3-3---3-3-3-|---3-3-3---3-3-3-|-----------------|------------------|| Repeat 2x
« Last Edit: July 18, 2005, 11:51:27 pm by H »
[Comfort the disturbed. Disturb the comfortable]
Crownus

Offline H

  • Full Member
  • ***
  • Posts: 545
  • Karma: 13
  • Gender: Male
  • Gamer. Guitarist. Slacker.
    • My site
Re: Masquerade Tabs
« Reply #1 on: July 17, 2005, 04:16:56 pm »
Some more for ya:

|Chorus Riffs:
|-----------------|-----------------|-----------------|-----------------|
|-----------------|-----------------|-----------------|-----------------|
|-4-4-4-4-4-4-4-4-|-5-5-5-5-5-5-5-5-|-7-7-7-7-7-7-7-7-|-7-7-7-7-7-7-7-7-|
|-4-4-4-4-4-4-4-4-|-5-5-5-5-5-5-5-5-|-7-7-7-7-7-7-7-7-|-7-7-7-7-7-7-7-7-|
|-2-2-2-2-2-2-2-2-|-3-3-3-3-3-3-3-3-|-5-5-5-5-5-5-5-5-|-5-5-5-5-5-5-5-5-|
|-----------------|-----------------|-----------------|-----------------|
|
|
|
||------------------|------------------|-----------------|-----------------|
||o-----------------|------------------|-----------------|-----------------|
||--9-9-9-9-9-9-9-9-|------------------|-7-7-7-7-7-7-7-7-|-7-7-7-7-7-7-7-7-|
||--9-9-9-9-9-9-9-9-|---7---9---7------|-7-7-7-7-7-7-7-7-|-7-7-7-7-7-7-7-7-|
||o-7-7-7-7-7-7-7-7-|-7---7---7---7-10-|-5-5-5-5-5-5-5-5-|-5-5-5-5-5-5-5-5-|
||------------------|------------------|-----------------|-----------------|
|
|
|
|-----------------|------------------|-----------------|------------------||
|-----------------|------------------|-----------------|-----------------o||
|-9-9-9-9-9-9-9-9-|------------------|-7-7-7-7-7-7-7-7-|-7-7-7-7-7-7-7-7--||
|-9-9-9-9-9-9-9-9-|---9---7--------9-|-7-7-7-7-7-7-7-7-|-7-7-7-7-7-7-7-7--||
|-7-7-7-7-7-7-7-7-|-7---7---7-10-7---|-5-5-5-5-5-5-5-5-|-5-5-5-5-5-5-5-5-o||
|-----------------|------------------|-----------------|------------------|| Repeat 2x
|
|
|
|
|Bridge riff:
||------------------|-----------------|-----------------|-------------------||
||o-----------------|-----------------|-----------------|------------------o||
||------------------|-2-2-2-2-2-2-2-2-|-----------------|-7-7-7-7-7-7-7-7---||
||--2-2-2-2-2-2-2-2-|-2-2-2-2-2-2-2-2-|-5-5-5-5-5-5-5-5-|-7-7-7-7-7-7-7-7---||
||o-2-2-2-2-2-2-2-2-|-0-0-0-0-0-0-0-0-|-5-5-5-5-5-5-5-5-|-5-5-5-5-5-5-5-5--o||
||--0-0-0-0-0-0-0-0-|-----------------|-3-3-3-3-3-3-3-3-|-------------------|| Repeat 2x
|
|
|-----------------|-----------------|
|-----------------|-----------------|
|-4-4-4-4-4-4-4-4-|-4-4-4-4-4-4-4-4-|
|-4-4-4-4-4-4-4-4-|-4-4-4-4-4-4-4-4-|
|-2-2-2-2-2-2-2-2-|-2-2-2-2-2-2-2-2-|
|-----------------|-----------------|
|
|
|
|
|Interlude Riffs:
|------------------|----------------------|------------------|----------------------|
|------------------|----------------------|------------------|----------------------|
|------5-------7---|------9---------10----|------5-------7---|------9---------10----|
|----7---7---9---9-|---10---10---12----12-|----7---7---9---9-|---10---10---12----12-|
|-0--------0-------|-0---------0----------|-0--------0-------|-0---------0----------|
|------------------|----------------------|------------------|----------------------|
|
|
|-----------------|----------------------|-----------------|----------------------|
|-----------------|----------------------|-----------------|----------------------|
|-----------------|----------------------|-----------------|----------------------|
|-----5-------7---|------9---------10----|-----5-------7---|------9---------10----|
|---7---7---9---9-|---10---10---12----12-|---7---7---9---9-|---10---10---12----12-|
|-0-------0-------|-0---------0----------|-0-------0-------|-0---------0----------|
|
|
|
|-----------------|------------------|
|-----------------|------------------|
|-----------------|------------------|
|---5-4-5---5-4-5-|---5-4-5---5-4-5--|
|-3-------3-------|-3-------3--------|
|-----------------|------------------|
|
|
|
|-----------------|-----------------|-----------------|-----------------|
|-----------------|-----------------|-----------------|-----------------|
|-----------------|-----------------|-----------------|-----------------|
|---7-5-7---7-5-7-|---7-5-7---7-5-7-|---4-5-4---4-5-4-|---4-5-4---4-5-4-|
|-5-------5-------|-5-------5-------|-2-------2-------|-2-------2-------|
|-----------------|-----------------|-----------------|-----------------|
|
|
|
|-----------------|-----------------|-----------------|start------------|
|-----------------|-----------------|-----------------|-of--------------|
|-----------------|-----------------|-----------------|guitar-----------|
|---5-4-5---5-4-5-|---7-5-7---7-5-7-|---9-7-9---9-7-9-|solo-------------|
|-3-------3-------|-5-------5-------|-7-------7-------|-----------------|
|-----------------|-----------------|-----------------|-----------------|
|
|
|
|Rhythm under solo:
||------------------|-----------------|-----------------|-----------------|
||o-----------------|-----------------|-----------------|-----------------|
||--9-9-9-9-9-9-9-9-|-9-9-9-9-9-9-9-9-|-9-9-9-9-9-9-9-9-|-9-9-9-9-9-9-9-9-|
||--9-9-9-9-9-9-9-9-|-9-9-9-9-9-9-9-9-|-9-9-9-9-9-9-9-9-|-9-9-9-9-9-9-9-9-|
||o-7-7-7-7-7-7-7-7-|-7-7-7-7-7-7-7-7-|-7-7-7-7-7-7-7-7-|-7-7-7-7-7-7-7-7-|
||------------------|-----------------|-----------------|-----------------|
|
|
|  E E E E E E E E   E E E E E E E E   E E E E E E E E   E E E E E E E E
|-----------------|-----------------|-----------------|------------------||
|-----------------|-----------------|-----------------|-----------------o||
|-----------------|-----------------|-----------------|------------------||
|-5-5-5-5-5-5-5-5-|-5-5-5-5-5-5-5-5-|-9-9-9-9-9-9-9-9-|-9-9-9-9-9-9-9-9--||
|-5-5-5-5-5-5-5-5-|-5-5-5-5-5-5-5-5-|-9-9-9-9-9-9-9-9-|-9-9-9-9-9-9-9-9-o||
|-3-3-3-3-3-3-3-3-|-3-3-3-3-3-3-3-3-|-7-7-7-7-7-7-7-7-|-7-7-7-7-7-7-7-7--|| Repeat 2x, then go to chorus riff
|
|
|
|Outro:
|-----------------|----------------------|-----------------|----------------------|
|-----------------|----------------------|-----------------|----------------------|
|-----------------|----------------------|-----------------|----------------------|
|-----5-------7---|------9---------10----|-----5-------7---|------9---------10----|
|---7---7---9---9-|---10---10---12----12-|---7---7---9---9-|---10---10---12----12-|
|-0-------0-------|-0---------0----------|-0-------0-------|-0---------0----------|
|
|
|------------------|----------------------|------------------|----------------------|
|------------------|----------------------|------------------|----------------------|
|------5-------7---|------9---------10----|------5-------7---|------9---------10----|
|----7---7---9---9-|---10---10---12----12-|----7---7---9---9-|---10---10---12----12-|
|-0--------0-------|-0---------0----------|-0--------0-------|-0---------0----------|
|------------------|----------------------|------------------|----------------------|
|
|
|-----------------|----------------------|-----------------|----------------------|
|-----------------|----------------------|-----------------|----------------------|
|-----------------|----------------------|-----------------|----------------------|
|-----5-------7---|------9---------10----|-----5-------7---|------9---------10----|
|---7---7---9---9-|---10---10---12----12-|---7---7---9---9-|---10---10---12----12-|
|-0-------0-------|-0---------0----------|-0-------0-------|-0---------0----------|
|
|
|------------------|----------------------|------------------|----------------------|
|------------------|----------------------|------------------|----------------------|
|------5-------7---|------9---------10----|------5-------7---|------9---------10----|
|----7---7---9---9-|---10---10---12----12-|----7---7---9---9-|---10---10---12-----2-|
|-0--------0-------|-0---------0----------|-0--------0-------|-0---------0--------2-|
|------------------|----------------------|------------------|--------------------0-|
|
|
| x = 8th rest
|------------------------|
|------------------------|
|------------------------|
|-x-2-2-2-2-2-2-2-7------|
|-X-2-2-2-2-2-2-2-7------|
|-x-0-0-0-0-0-0-0-5------|
[Comfort the disturbed. Disturb the comfortable]
Crownus

Offline Jack Lupino

  • Worst Dude
  • Machinae Prime
  • *****
  • Posts: 12941
  • Karma: 62
  • Gender: Female
Re: Masquerade Tabs
« Reply #2 on: July 18, 2005, 04:20:13 pm »
H, why the fuck don't you call yourself the tab lord of bloody hell ?

Offline H

  • Full Member
  • ***
  • Posts: 545
  • Karma: 13
  • Gender: Male
  • Gamer. Guitarist. Slacker.
    • My site
Re: Masquerade Tabs
« Reply #3 on: July 18, 2005, 04:54:42 pm »
Haha :P I don't because there are still a lot of little fills & a harmony that I still need to pick out of the song. This is just the basic stuff that my ears could pick out easily ^_^;;
[Comfort the disturbed. Disturb the comfortable]
Crownus

Offline MashedByMachines

  • That guy
  • Community Supporter
  • Sr. Member
  • ******
  • Posts: 1927
  • Karma: 15
  • Gender: Male
  • Skala lök?
    • Music
Re: Masquerade Tabs
« Reply #4 on: July 18, 2005, 08:46:28 pm »
wow nice stuff :D put together a powertab or guitarpro file of this and u are the master of tabbing :D

http://mashedbymachines.newgrounds.com/


Believing in a zombieman from outer space who is his own father is pretty funny, but that's not what MaSu is about //yas

Offline H

  • Full Member
  • ***
  • Posts: 545
  • Karma: 13
  • Gender: Male
  • Gamer. Guitarist. Slacker.
    • My site
Re: Masquerade Tabs
« Reply #5 on: July 18, 2005, 11:50:23 pm »
Heh. I won't go so far as to say that ^_^;;

But I will get the powertab uploaded.

Annnd.... done :)

Machinae Supramacy - "Masquerade" Powertab
[Comfort the disturbed. Disturb the comfortable]
Crownus

Offline Jack Lupino

  • Worst Dude
  • Machinae Prime
  • *****
  • Posts: 12941
  • Karma: 62
  • Gender: Female
Re: Masquerade Tabs & Powertab file
« Reply #6 on: July 19, 2005, 01:26:37 am »
k ,k  it aint that hard tho, but you are tho only one who put efford in it hehe

Offline RAWR85

  • Newbie
  • *
  • Posts: 1
  • Karma: 0
Re: Masquerade Tabs & Powertab file
« Reply #7 on: August 13, 2009, 10:45:58 pm »
Hey, Is there any chance you can do a version for GuitarPro please? :)

Offline WereVolvo

  • IRC Love Butter supplier
  • Global Moderator
  • Machinae Prime
  • ***
  • Posts: 3414
  • Karma: 115
  • Gender: Male
  • Volvot ulvoo kuun savuun!
    • My personal site
Re: Masquerade Tabs & Powertab file
« Reply #8 on: August 14, 2009, 12:02:17 am »
Protip: you might want to consider making a new topic, rather than resurrecting a poor old dead-for-5-years topic ;)

y'know, just to keep the "abominations against nature" thing under control... there be enough of them around as it is already.
<@Torp> I have seen your melted pussy!



Quote
Real Dwarfs wall themselves in once they are underground, and survive through incest and cat farming.

Offline dezo

  • ex Defence Against the Dark Arts
  • Machinae Prime
  • *****
  • Posts: I am a geek!!
  • Karma: 44
Re: Masquerade Tabs & Powertab file
« Reply #9 on: August 14, 2009, 02:32:28 am »
On the other hand, the d00d used search so why spank him when the topic is valid?
Mebbe the tab section should be more like a wiki?
User generated content are win... tho truth by popular opinion are fail =)

oh, hai there new guy.

Offline LymphoCite_T

  • SiteDeveloper
  • Full Member
  • ****
  • Posts: 512
  • Karma: 3
  • Gender: Male
    • visit me at youtube!
Re: Masquerade Tabs & Powertab file
« Reply #10 on: August 14, 2009, 05:37:48 pm »
On the other hand, the d00d used search so why spank him when the topic is valid?
Mebbe the tab section should be more like a wiki?
User generated content are win... tho truth by popular opinion are fail =)

fully agree.
:):):)