Author Topic: {MaSu 'Guitar' TABs}  (Read 4716 times)

0 Members and 1 Guest are viewing this topic.

Offline Sproof

  • Newbie
  • *
  • Posts: 65
  • Karma: 9
  • Gender: Male
{MaSu 'Guitar' TABs}
« on: October 16, 2004, 08:29:59 pm »
Blind Dog Pride

Intro



E|---------|
B|---------|
G|---------|
D|---2-2---|
A|---2-2---|
E|---0-0---|



--------------------------------------------------------------------------
--------------------------------------------------------------------------
--------------------------------------------------------------------------
-------------7-9--7----------------------------------------7-9---7--------
-9--10--9-10--------10-10-9---10-9-7---------10-7---7-9-10-----------6----
-------------------------------------10-7-10------------------------------


--------------------------------------------------------------------------
--------------------------------------------------------------------------
-----------------------------------------------------------7-9---8--------
-------------7-9--7------------------------------------7-9-----------7b---
-9--10--9-10--------10-10-9---10-9-7---------10-7---10--------------------
-------------------------------------10-7-10------------------------------




Intro Chords

E|---------------------------------------------------------------||
B|---------------------------------------------------------------||
G|-------------------------4--4----------------------------------||
D|---2-2-2-2-2-2-2---2-2-2-4--4--4-4-4-4-4-4-4-4-4-4-4-4-4-4-4-4-||
A|---2-2-2-2-2-2-2---2-2-2-2--2--4-4-4-4-4-4-4-4-4-4-4-4-4-4-4-4-||
E|-3-0-0-0-0-0-0-0-3-0-0-0-------2-2-2-2-2-2-2-2-2-2-2-2-2-2-2-2-||


E|---------------------------------------------------------------||
B|---------------------------------------------------------------||
G|-------------------------------4-4-4-4-4-4-4-4-4-4-4-4-4-4-4-4-||
D|---2-2-2-2-2-2-2-2---4---5--7--4-4-4-4-4-4-4-4-4-4-4-4-4-4-4-4-||
A|---2-2-2-2-2-2-2-2---4---5--7--2-2-2-2-2-2-2-2-2-2-2-2-2-2-2-2-||
E|-3-0-0-0-0-0-0-0-0---2---3--5----------------------------------||



Verse

E|-------------------------------------------------
B|-------------------------------------------------
G|-4-------4-------4-------4-----------------------
D|-4-------4-------4-------4-------4-4-4-4-4-4-4-4-
A|-2-----0-2-----0-2-----0-2-----0-4-4-4-4-4-4-4-4-
E|---0-3-----0-3-----0-3-----0-3---2-2-2-2-2-2-2-2-


E|-------------------------------------------------
B|-------------------------------------------------
G|-4-------4-------4-------4-------4-4-4-4-4-4-4-4-
D|-4-------4-------4-------4-------4-4-4-4-4-4-4-4-
A|-2-----0-2-----0-2-----0-2---3-5-2-2-2-2-2-2-2-2-
E|---0-3-----0-3-----0-3-----0---------------------



« Last Edit: October 29, 2004, 03:59:06 pm by Sproof »

Offline Sproof

  • Newbie
  • *
  • Posts: 65
  • Karma: 9
  • Gender: Male
Ninja
« Reply #1 on: October 16, 2004, 08:54:14 pm »
Ninja

Intro/Main Riff


E|-----------------------------------------------||
B|-----------10----------------------------------||
G|--11--9-11----11-9----------------6------------||
D|-------------------11--9-7-9--7-9---9-7--------||
A|----------------------------------------9------||
E|-----------------------------------------------||




E|-----------------------------------------------||
B|-----------10----------------------------------||
G|--11--9-11----11-9----------9--------6---------||
D|-------------------11--9-11---9--7-9-----------||
A|---------------------------------------9-------||
E|-----------------------------------------------||




E|-----------------------------------------------||
B|-----------10----------------------------------||
G|--11--9-11----11-9----------------6------------||
D|-------------------11--9-7-9--7-9---9-7--------||
A|----------------------------------------9------||
E|-----------------------------------------------||




E|-----------------------------------------------||
B|-----------10----------------------------------||
G|--11--9-11----11-9----------9------------------||
D|-------------------11--9-11---9--11-9-7-6------||
A|------------------------------------------7-9--||
E|-----------------------------------------------||



Chords*


E|--------------||
B|--------------||
G|--------------||
D|--4---7---2---||
A|--4---7---2---||
E|--2---5---0---||



*Chord sequance does change throughout song.
**There are some notes above chords about 2:10, i will do them soon.


Offline Sproof

  • Newbie
  • *
  • Posts: 65
  • Karma: 9
  • Gender: Male
Dreadnaught
« Reply #2 on: October 16, 2004, 09:10:32 pm »
Dreadnaught



e|----------------------------------------------------------------|
B|o--------------------------------------------------------------o|
G|----------------------------------------------------------------|
D|----------------------------------------------------------------|
A|o-----1--3--1--3--4--3--1------1--3--1--3--4--3--1-------------o|
E|--3------------------------3------------------------------------|

e|-----------------------------------|
B|-----------------------------------|
G|-----------------------------------|
D|-----------------------------------|
A|------1--3--1--3--4--3--4----------|
E|--3--------------------------------|

e|----------------------------------------------------------------|
B|o--------------------------------------------------------------o|
G|----------------------------------------------------------------|
D|----------------------------------------------------------------|
A|o-----4--6--4--6--7--6--4------4--6--4--6--7--6--4-------------o|
E|--/6------------------------6-----------------------------------|

e|-----------------------------------------|
B|-----------------------------------------|
G|-----------------------------------------|
D|-----------------------------------------|
A|------4--6--4--9--8--6-------------------|
E|---6-------------------9-8-9-------------|

e|-----------------------------------------------------|
B|---9--9---8--8---6--6--------------------------------|
G|-----------------------8-8-8--8-8-8--8-8-8-----------|
D|-----------------------------------------------------|
A|-----------------------------------------------------|
E|-----------------------------------------------------|
                         PM..................

e|-----------------------------------------------------|
B|-----------------------------------------------------|
G|----6--6---5--5---3--3-------------------------------|
D|-/8-8--8---7--7---5--5-------------------------------|
A|-/6-------------------------3-3-3--3-3-3--3-3-3------|
E|-----------------------------------------------------|
                             PM....................

e|----------------------------------------------10b11r10b11r10---12b---|
B|---------------------------------------------------------------12b---|
G|---------------------------------------------------------------------|
D|--7-7-7-7-7-7-7-7-/8-8-8-8--------7~---------------------------------|
A|--5-5-5-5-5-5-5-5-/6-6-6-6--------5~---------------------------------|
E|---------------------------------------------------------------------|
             


Small interlude at ~3:00:

e|---------------------------------------------------------------------------|
B|---------------------------------------------------------------------------|
G|---------------------------------------------------------------------------|
D|---------------------------------------------------------------------------|
A|------4-6---6-7-6-4----4-6---6-7-6-4----4-6---6-7-6-4----4-6---6-7-6-4-----|
E|--/6----------------6----------------6----------------6----------------6\--|


And the outro:

e|---------------------------------------------------------------------------|
B|---------------------------------------------------------------------------|
G|-----6-8-6-8-9-8-6----6-8-6-8-9----*----6--8--9--8--6-----6--8--9--8--6----|
D|--8--6-8-6-8-9-8-6-8--6-8-6-8-9----*-8--6--8--9--8--6--8--6--8--9--8--6----|
A|--8--4-6-4-6-7-6-4-8--4-6-4-6-7----*-8--4--6--7--6--4--8--4--6--7--6--4----|
E|--6----------------6-----------------6-----------------6----
---------------|

e|--------------------|
B|--------------------|
G|--------------------|
D|-6-6-6-6--7-8--\----|
A|-6-6-6-6--7-8--\----|
E|-4-4-4-4--5-6--\----|

* = there's some chord here, probably E5/F5 but I'm not sure.



Dreadnaught TAB made by Ipster and Tritox


Offline Sproof

  • Newbie
  • *
  • Posts: 65
  • Karma: 9
  • Gender: Male
Multiple TABs
« Reply #3 on: October 17, 2004, 11:24:34 am »
Hero (Solo); INSERT INTO yabbse_messages (ID_MSG, ID_TOPIC, ID_MEMBER, subject, posterName, posterEmail, posterTime, posterIP, smiliesEnabled, modifiedTime, modifiedName, body, icon, attachmentSize, attachmentFilename) VALUES Sidology Episode 3, SiDstyler, Attack Music (Solo); INSERT INTO yabbse_messages (ID_MSG, ID_TOPIC, ID_MEMBER, subject, posterName, posterEmail, posterTime, posterIP, smiliesEnabled, modifiedTime, modifiedName, body, icon, attachmentSize, attachmentFilename) VALUES Hubernester Inferno and Great Gianna Sisters


http://home.c2i.net/vgjuvsla/tabs/*


*Link posted by Skvate

Offline Sproof

  • Newbie
  • *
  • Posts: 65
  • Karma: 9
  • Gender: Male
Re:{MaSu 'Guitar' TABs}
« Reply #4 on: October 28, 2004, 03:24:40 pm »
Soundtrack to the Rebellion

Intro Riff
E|------------------------------------------------------------||
B|------------------------------------------------------------||
G|------------------------------------------------------------||
D|-----------------------------------------11--9-8------------||
A|------11--9-11-----11--9-11----11--9-11----------9----9-11--||
E|--11-----------11-----------7----------------------11-------||



E|------------------------------------------------------------||
B|------------------------------------------------------------||
G|------------------------------------------------------------||
D|------------------------------------------------------------||
A|------11--9-11----11--9-11----11--9-11--9--8----------------||
E|--11-----------9-----------7-----------------11-9--8-9-9/11-||

                           **Repeat**

in second time the ending of the second line changes to...


E|------------------------------||
B|------------------------------||
G|------------------------------||
D|------------------------------||
A|-9--8-------------------------||
E|------11-9--8-9-9----8-9-9/11-||


Small Interlude

From last note from end of Intro

E|-------------------------||
B|-------------------------||
G|-------------------------||
D|-------------------------||        x = dead note
A|----------xxxx--7--6-4---||
E|-11//////-xxxx---------7-||


Verse


E|-------------------------------------------||
B|-----------------------------------------7~||
G|-----------------------------------6--8----||
D|----6----6--9--6------6----6--9--9---------||
A|-7-----7---------6--9---6------------------||
E|-------------------------------------------||



E|-------------------------------------------------||
B|-------------------------------------------------||
G|-------------------------------------------------||
D|----------8-----------------------------11----11-||
A|-9--11-9-----11-9--9-11-----9--9-7------11----11-||
E|------------------------9-----------9---9---9-9--||



Pre-Chorus

E|----------------------------------||
B|----------------------------------||
G|---*-*---*-*-*-*---*-*---*-*-*-*--||
D|-7-7-7-7-7-7-7-7-7-7-7-7-7-7-7-7--||    * = Palm Mute
A|-7-7-7-7-7-7-7-7-7-7-7-7-7-7-7-7--||
E|-5-5-5-5-5-5-5-5-5-5-5-5-5-5-5-5--||


E|----------------------------------||
B|----------------------------------||
G|---*-*---*-*-*-*---*-*---*-*-*-*--||
D|-4-4-4-4-4-4-4-4-4-4-4-4-4-4-4-4--||    
A|-4-4-4-4-4-4-4-4-4-4-4-4-4-4-4-4--||
E|-2-2-2-2-2-2-2-2-2-2-2-2-2-2-2-2--||


E|----------------------------------||
B|----------------------------------||
G|---*-*---*-*-*-*---*-*---*-*-*-*--||
D|-7-7-7-7-7-7-7-7-7-7-7-7-7-7-7-7--||    * = Palm Mute
A|-7-7-7-7-7-7-7-7-7-7-7-7-7-7-7-7--||
E|-5-5-5-5-5-5-5-5-5-5-5-5-5-5-5-5--||


E|----------------------------------||
B|----------------------------------||
G|----------------------------------||
D|-4-4-4-4-4-4-4-4-4-4-4-4-4-4-4-4--||    (no Palm Mute on this line)
A|-4-4-4-4-4-4-4-4-4-4-4-4-4-4-4-4--||
E|-2-2-2-2-2-2-2-2-2-2-2-2-2-2-2-2--||


Bit before Chorus

E|------------------||
B|------------------||
G|------------------||
D|--4---6--7-6---4--||
A|--4---6--7-6---4--||
E|--2---4--5-4---2--||


Chorus

E|----------------------------------||
B|----------------------------------||
G|----------------------------------||
D|-6-6
-6-6-6-6-6-6\4-4-4-4-4-4-4-4\-||
A|-6-6-6-6-6-6-6-6\4-4-4-4-4-4-4-4\-||
E|-4-4-4-4-4-4-4-4\2-2-2-2-2-2-2-2\-||


E|----------------------------------||
B|----------------------------------||
G|-----------------------*-*-*-*-*--||      * = Palm Mute
D|\2-2-2-2-2-2-2-2-2-2-2-2-2-2-2-2--||
A|\2-2-2-2-2-2-2-2-2-2-2-2-2-2-2-2--||
E|\0-0-0-0-0-0-0-0-0-0-0-0-0-0-0-0--||

             **Repeat**



Then its the Intro Riff with this played above it
(not 100% sure about this part)



E|--------------------------------------------------||
B|--------------------------------------------------||
G|---------------------------8--9--8---------8------||
D|-9---8-9--8---9-11--9---11---------11-9-11---11---||
A|--------------------------------------------------||
E|--------------------------------------------------||


                                                     
E|--------------------------------------------------||
B|--------------------------------------------------||
G|--------------------8-----------------------------||
D|-9---8-9--8---9-11-----11-9--9--8-----------------||
A|----------------------------------11-9--8-9-9/11--||
E|--------------------------------------------------||


Then it repeats most the TAB i've done until again the Intro Riff is played with another tune above it
(Not 100% accurate) if you know the corrections please PM me or post it on the SttR Thread in TABs


E|--------------------------------------------||
B|--------------------------------9~----------||
G|------8-9-11~---8-9-11/13----11----11-------||
D|-9-11---------9-----------9-----------11~-9-||
A|--------------------------------------------||
E|--------------------------------------------||


E|----------------------------||
B|----------------------------||
G|-----------8-6--------6-----||
D|-6---6-6-8------6-6-8---6---||
A|----------------------------||
E|----------------------------||



E|---------------------------------------------------||
B|---------------------------------------------------||
G|---------------------------------------------------||
D|-6-----6-9-6-8---8---8-9-11-8-9----9----9-11-13-11-||
A|---6-9---------9---9------------11---11------------||
E|---------------------------------------------------||


E|---------------------------------------||
B|----------12-14-12---14-11---12-9---11-||
G|----13-15------------------------------||
D|-13------------------------------------||
A|---------------------------------------||
E|---------------------------------------||


E|---------------------------||
B|---------------------------||
G|---------------------------||
D|---------------------------||
A|-9-8-----------------------||
E|-----11-9--8-9-9--8-9-9/11-||


Just before last chorus


E|-------------||
B|-------------||
G|-------------||
D|--6----x-x-x-||     x = Dead Note
A|--6----x-x-x-||
E|--4----x-x-x-||


Chorus now played a step higher than usuall


E|---------------------------------||
B|---------------------------------||
G|---------------------------------||
D|-7-7-7-7-7-7-7-7\5-5-5-5-5-5-5-5-||
A|-7-7-7-7-7-7-7-7\5-5-5-5-5-5-5-5-||
E|-5-5-5-5-5-5-5-5\3-3-3-3-3-3-3-3-||


E|---------------------------------||
B|---------------------------------||
G|-----------------------*-*-*-*-*-||    * = Palm Mute
D|-3-3-3-3-3-3-3-3-3-3-3-3-3-3-3-3-||
A|-3-3-3-3-3-3-3-3-3-3-3-3-3-3-3-3-||
E|-1-1-1-1-1-1-1-1-1-1-1-1-1-1-1-1-||

            **Repeat**


E|-----||
B|-----||
G|-----||
D|--3--||
A|--3--||
E|--1--||

**Repeat
chord till end of song**

There are some notes above that last chord, if anyone knows them tell me and i shall add them.

( Any mistakes if you can tell me the corrections i will be greatly appreciative. )




Transcribed by *Sproof*
« Last Edit: October 31, 2004, 11:39:43 am by Sproof »

Offline Tritox

  • Jr. Member
  • **
  • Posts: 206
  • Karma: 14
  • Gender: Male
  • Nuuh
Re:{MaSu 'Guitar' TABs}
« Reply #5 on: October 29, 2004, 02:59:37 pm »
I changed the location of all my tabs. The old links won't work anymore.

Here are the new links (all need Guitar Pro 4.07 at least):


Blind Dog Pride:

http://www.student.oulu.fi/~arilavan/tabs/machinae_supremacy-bdp.gp4

Hero:

http://www.student.oulu.fi/~arilavan/tabs/machinae_supremacy-hero.gp4

Jets 'n' Guns main theme:

http://www.student.oulu.fi/~arilavan/tabs/machinae_supremacy-jng_main_theme.gp4

The Great Gianna Sisters:

http://www.student.oulu.fi/~arilavan/tabs/machinae_supremacy-the_great_gianna_sisters.gp4


Hero and TGSS are almost complete (solos are missing).

« Last Edit: October 30, 2004, 02:38:21 am by Tritox »

Offline Tritox

  • Jr. Member
  • **
  • Posts: 206
  • Karma: 14
  • Gender: Male
  • Nuuh
Re:{MaSu 'Guitar' TABs}
« Reply #6 on: October 30, 2004, 02:37:36 am »
http://www.mysongbook.com/tab-tab_list-id_artist=6690.htm

There are tabs for Player One and Sidstyler in Guitar Pro format.