The Band > Tabs

READ: Guide on posting TABs

(1/1)

refic:
Thanks in advance for posting tabs here. We all know how much hard work transcribing from the audio files is.

Do, however remember this: Use the teletype-function when posting tabs so they will view properly.

Teletype is used by clicking the button that has a picture of a typewriter on it

EXAMPLE:

WRONG!

e--------5-----------0--------0---
B-----------------------------------
G---2------------------------------
D-----------6p5-------------------
A-----------------------------------
E-0--------------------------------

Right!


e--------5-----------0--------0---
B---------------------------------
G---2-----------------------------
D-----------6p5-------------------
A---------------------------------
E-0-------------------------------


Thanks for reading, now go tab some kickass music!

Navigation

[0] Message Index

Go to full version