Author Topic: Sidology Episode 1 - Sid Evolution  (Read 2613 times)

0 Members and 1 Guest are viewing this topic.

Offline Tritox

  • Jr. Member
  • **
  • Posts: 206
  • Karma: 14
  • Gender: Male
  • Nuuh
Sidology Episode 1 - Sid Evolution
« on: June 16, 2003, 09:00:03 pm »
Well, here is only the end of the song. Maybe if I get real inspired, I
will try to tab the rest... Just mail me if there are errors, this shit
ain't 100% correct. =) And I just couldn't figure out the 2nd guitar on
that Outrun part.



Machinae Supremacy - Sidology Episode 1 - Sid Evolution

Tabbed by Tritox (with a bit of help by Janne Koskinen)
(tritox@kotinet.com)

.   = staccato
/   = slide down
~   = vibrato
^   = bend
<x> = pinch harmonic
PM. = palm-mute



[3:49-4:21]
   Gtrs 1 & 2
E|-------------------------|---------------------------|
B|-------------------------|---------------------------|
G|-------------------------|-------------------4---5---|
D|-------------------------|---------------4-----------|
A|-/4-4-7---------7.-6-4---|-4-4-7-----------2---3-----|
E|--------5-----0--------7-|-------5-----2-------------|

   Gtr 1
E|-------------------------|---------------------------|
B|-------------------------|---------------------------|
G|-------------------------|-------------------4---5---|
D|-------------------------|---------------4-----------|
A|--4-4--7.-------7.-6-4---|-4-4-7-----------2---3-----|
E|-----------5--0--------7-|-------5-----2-------------|
 |
 | Gtr 2
E|-------------------------|---------------------------|
B|-------------------------|---------------------------|
G|-------------------------|-------------------4---5---|
D|-------------------------|---------------4-----------|
A|--4-4-7<7>------7.-6-4---|-4-4-7-----------2---3-----|
E|--------------0--------7-|-------5-----2-------------|


   Gtrs 1 & 2 (riff X)
E|-------------------------|---------------------------|
B|-------------------------|---------------------------|
G|-------------------------|-------------------4---5---|
D|-------------------------|---------------4-----------|
A|--4-4-7---------7.-6-4---|-4-4-7-----------2---3-----|
E|--------5-----0--------7-|-------5-----2-------------|


  Gtr 1 plays riff X three times while gtr 2 plays:
E|-------------------------|---------------------------|
B|-------------------------|---------------------------|
G|-------------------------|-------------------4---5---|
D|---------------/6.-4-----|---------------4-----------|
A|--4-4-7--------------7-6-|-4-4-4-7---------2---3-----|
E|--------5----------------|-------------2-------------|

E|-------------------------|---------------------------|
B|-------------------------|---------------------------|
G|-------------11^-119-1113|-119-----------------------|
D|-------------------------|-----1111~-----------------|
A|-------------------------|---------------------------|
E|-------------------------|---------------------------|

E|-------------------------|---------------------------|
B|-------------------------|---------------------------|
G|-------------11^-119-1113|-119-------------9---------|
D|-------------------------|-----1111~---------9~------|
A|-------------------------|---------------------------|
E|-------------------------|---------------------------|



[4:21-4:41]

   Gtrs 1 & 2
E|------------------------------------------------|
B|------------------------------------------------|
G|*-6.-66.-46.-6.-66.-46.-6.-66.-46.-6.-66.-46.--*|
D|*-6.-66.-46.-6.-66.-46.-6.-66.-46.-6.-66.-46.--*|
A|--4.-44.-44.-4.-44.-44.-4.-44.-44.-4.-44.-44.---|
E|------------------------------------------------|

(slide only on 1st time)
E|--------------------------------------------------------|
B|----------------------------
----------------------------|
G|*-/6.----6.-46.-6-----6.-46.-6.----6.-46.-6.----6.-46.-*|
D|*-/6.----6.-46.-6.----6.-46.-6.----6.-46.-6.----6.-46.-*|
A|--/4.-44-4.-44.-4.-44-4.-44.-4.-44-4.-44.-4.-44-4.-44.--|
E|--------------------------------------------------------|
PM.     ..           ..           ..           ..



[4:42-] Outrun part

  Gtr 1
E|----------7-----------------------------------------------------------|
B|---9---7-----9---7-----7----------------------------------------------|
G|*-------------------9-----8-------------9---8--11--9---8-----6/8--6--*|
D|*----------------------------9~~--------------------------6----------*|
A|----------------------------------------------------------------------|
E|----------------------------------------------------------------------|

E|--9-7-------7-9-7------------------------------7-9-7-----12--11--9----|
B|------10-------------10--9-7-9-----------10-----------9---------------|
G|*------------------------------9-------------------------------------*|
D|*--------------------------------------------------------------------*|
A|----------------------------------------------------------------------|
E|----------------------------------------------------------------------|




Enjoy!
« Last Edit: September 02, 2014, 04:43:45 pm by evilcandybag »