Author Topic: Sidstyler intro  (Read 2519 times)

0 Members and 1 Guest are viewing this topic.

Offline Strong Bad

  • Newbie
  • *
  • Posts: 4
  • Karma: 1
  • I'm a llama!
Sidstyler intro
« on: June 10, 2003, 01:46:02 am »
I'm in the process of tabbing the whole song, but I just wanted to run this by you. Try it and tell me if you think it sounds right. Thanks.  





#----------------------------------PLEASE NOTE---------------------------------#
#This file is the author's own work and represents their interpretation of the #
#song. You may only use this file for private study, scholarship, or research. #
#------------------------------------------------------------------------------#

Machinae Supremacy - Sidstyler
Composed by Bomfunk MCs
Performed by Machinae Supremacy
Tab by Draugheim    hex_icon@hotmail.com


.  - palm mute                    /  - slide up to
\  - slide down to                ~  - vibrato
h  - hammer on                    b  - bend
p  - pull off                          Suffixes for bend
ph - pinch harmonic                     f - full bend    h - half bend
*  - see comment                        r - release      t - tap bend
X  - percussion mute                    ~ - vibrato bend
@  - slight palm mute             () - ghost note, sustained note
"  - tremolo pick until next note    Subst. - substitute of a riff


Standard tuning E-A-D-G-B-e


Intro Riff - 2 times
|-t15p12p9--t15p12p9--t15p12p9--t14p12p9--t14p12p9h12--|
|------------------------------------------------------|
|------------------------------------------------------|
|------------------------------------------------------|
|------------------------------------------------------|
|------------------------------------------------------|

|---------------------------------------------------------------------|------|
|-t15p13p8--t15p13p8--t15p13p8--t17p13--t17p15p10--t17p15p10--t17p15--|-15~--|
|---------------------------------------------------------------------|------|
|---------------------------------------------------------------------|------|
|---------------------------------------------------------------------|------|
|---------------------------------------------------------------------|------|
                                                                         /\
                                                                 this is played the
                                                                    final time

Main/Chorus Riff
|--------------------------------------------------------------|
|-8-5-0--8-5-0--8-5-0--7-5-0--7-5-0----------------------------|
|------------------------------------8-6--8-6-8-6/8-10-8-10-8--|
|--------------------------------------------------------------|
|--------------------------------------------------------------|
|--------------------------------------------------------------|

Offline Skvate

  • Jr. Member
  • **
  • Posts: 166
  • Karma: 13
  • Gender: Male
  • Mediocre
Re:Sidstyler intro
« Reply #1 on: June 10, 2003, 03:43:55 am »
Dont think they use tapping and pulloffs... but my hearing might be damaged :P
Lifeless I sail through these ironic fashions, dressed in the flesh of the jokers passions. On the uttermost brink of madness I stroll, and the rise of insanity as my most precious goal. Tricking the trail of my long lost obscurity, I gather me inside the artifice of eternity....

Offline Strong Bad

  • Newbie
  • *
  • Posts: 4
  • Karma: 1
  • I'm a llama!
Re:Sidstyler intro
« Reply #2 on: June 11, 2003, 12:32:21 am »
It's completly possible that they don't use tapping. I don't know, it just sounds right when I play like that.

Offline shinmai

  • Newbie
  • *
  • Posts: 21
  • Karma: 2
  • Gender: Male
  • shinmai/SubEXiT
    • shinmai.tk
Re:Sidstyler intro
« Reply #3 on: June 16, 2003, 11:46:28 pm »
I've always played the intro like this:
(Done in a hurry in notepad, sorry...)
Code: [Select]
                                        Intro Riff
e|-15p12-12-15p12-12-15p12-14p12-12-14p12-12-14p12-|
B|-------------------------------------------------|
G|-------------------------------------------------|
D|-------------------------------------------------|
A|-------------------------------------------------|
E|-------------------------------------------------|

e|-------------------------------------------------|
B|-15p13-13-15p13-13-15p13-17p15-15-17p15-15-17p15-|
G|-------------------------------------------------|
D|-------------------------------------------------|
A|-------------------------------------------------|
E|-------------------------------------------------|


                             Chorus Riff
e|--------------------------------------|
B|-8-5-0--8-5-0--8-5--7-5-0--7-5-0--7-5-|
G|--------------------------------------|
D|--------------------------------------|
A|--------------------------------------|
E|--------------------------------------|

e|--------------------------------------|
B|--------------------------------------|
G|-7-5-0--7-5-0--7-5--9-7-0--9-7-0--9-7-|
D|--------------------------------------|
A|--------------------------------------|
E|--------------------------------------|

And it sounds like it's not exactly correct, but it's kinda close...

I'm not a very good guitarist so don't expect much...
(the intro is definetily wrong. You can clearly hear three different tones in each 'run')

Maybe we could get some advice from the band?
SubEXiT --- the Only way Out!

Offline Skvate

  • Jr. Member
  • **
  • Posts: 166
  • Karma: 13
  • Gender: Male
  • Mediocre
Re:Sidstyler intro
« Reply #4 on: June 17, 2003, 07:37:43 am »
Lifeless I sail through these ironic fashions, dressed in the flesh of the jokers passions. On the uttermost brink of madness I stroll, and the rise of insanity as my most precious goal. Tricking the trail of my long lost obscurity, I gather me inside the artifice of eternity....

Offline CLU

  • Newbie
  • *
  • Posts: 44
  • Karma: 9
  • Gender: Male
  • What's a Machinae? Can you eat it??
    • (CLU)'s Home Page
More complete (and hopefully more accurate) Sidstyler tab
« Reply #5 on: October 25, 2003, 12:24:36 am »
   Q=190
   4/4
    Gtr I
     E  E  E  E  E  E  E  E    E  E  E  E  E  E  E  E
||--15-12----15-12----15-12-|----14-12----14-12----10-|
||o-------12-------12-------|-12-------12-------12----|
||--------------------------|-------------------------|
||--------------------------|-------------------------|
||o-------------------------|-------------------------|
||--------------------------|-------------------------|


  E E  E E E  E E E    E  E  E  E  E  E  E  E
|-8---10-8---10-8---|-12-10----12-10----12-------||
|---8------8------8-|-------10-------10----10---o||
|-------------------|----------------------------||
|-------------------|----------------------------||
|-------------------|---------------------------o||
|-------------------|----------------------------||


                      1/4
   W     +Q   H
|-----|-------------||---||
|-12--|-(12)--------||---||
|-----|-------------||---||
|-----|-------------||---||
|-----|-------------||---||
|-----|-------------||---||
                 Q     Q


   4/4
     E E E  E E E  E E   E  E E E  E E E E   E E E E E E E E   E E E E E E E E
||---------------------|-------------------|-----------------|-----------------|
||o--------------------|-------------------|-----------------|-----------------|
||--12-9---12-9---12-9-|---11-9---11-9---7-|-5---7-5---7-5---|-9-7---9-7---9-7-|
||-------9------9------|-9------9------9---|---5-----5-----5-|-----7-----7-----|
||o--------------------|-------------------|-----------------|-----------------|
||---------------------|-------------------|-----------------|-----------------|


   E  E  E  E E E  E E   E  E E E  E E E E
|----------------------|-------------------|
|----10-12-------------|-------------------|
|-12-------12-9---12-9-|---11-9---11-9---7-|
|---------------9------|-9------9------9---|
|----------------------|-------------------|
|----------------------|-------------------|


  E E E E E E E E   E E E E E E E E
|-----------------|------------------||
|-----------------|-----------------o||
|-5---7-5---7-5---|-9-7---9-7---9-7--||
|---5-----5-----5-|-----7-----7------||
|-----------------|-----------------o||
|-----------------|------------------||


                                              PM|   PM|   PM|     PM|   PM|
   E  E  E  E E E  E E   E  E E E  E E E  E   E E E E E E E E   E E E E E E Q
|----------------------|--------------------|-----------------|----------------|
|----10-12-------------|--------------------|-----------------|----------------|
|-12-------12-9---12-9-|---12-9---12-9------|-----------------|----------------|
|---------------9------|-9------9------9\-0-|-----------------|----------------|
|----------------------|--------------------|-----5-----7-----|-8-----9-----9--|
|----------------------|--------------------|-0-0-3-0-0-5-0-0-|-6-0-0-7-0-0-7--|


    PM|   PM    PM|       PM  PM|        PM|   PM    PM|       PM  PM  PM
    E E E E E E E E   E E E E E E E  E   E E E E E E E E   E E E E E E E E
||------------------|------------------|-----------------|-------------------||
||o-----------------|------------------|-----------------|------------------o||
||------------------|------------------|-----------------|-------------------||
||------------------|------------------|-----------------|---5---4-----------||
||o-----7---5-7-----|-5-7---5-----7\-5-|-----7---5-7-----|-5---------7---5--o||
||--0-0---0-----0-0-|-----0-3-0-0-5--3-|-0-0---0-----0-0-|-----0---0---0-----||


  PM|   PM    PM|       PM  PM|        PM|   PM    PM|       PM  PM  PM
  E E
 E E E E E E   E E E E E E E  E   E E E E E E E E   E E E E E E E E
|-----------------|------------------|-----------------|-----------------|
|-----------------|------------------|-----------------|-----------------|
|-----------------|------------------|-----------------|-----------------|
|-----------------|------------------|-----------------|---5---4---5---4-|
|-----7---5-7-----|-5-7---5-----7\-5-|-----7---5-7-----|-5---------------|
|-0-0---0-----0-0-|-----0-3-0-0-5--3-|-0-0---0-----0-0-|-----0---0---0---|


  PM|   PM    PM|       PM  PM|        PM|   PM    PM----|
  E E E E E E E E   E E E E E E E  E   E E E E E E E E   E E E E +H
|-----------------|------------------|-----------------|----------------|
|-----------------|------------------|-----------------|----------------|
|-----------------|------------------|-----------------|----------------|
|-----------------|------------------|-----------------|----------------|
|-----7---5-7-----|-5-7---5-----7\-5-|-----7---5-7-----|---5-7-9-(9)----|
|-0-0---0-----0-0-|-----0-3-0-0-5--3-|-0-0---0-----0-0-|-0-----7-(7)----|


     E E E  E E E  E E   E  E E E  E E E E
||---------------------|-------------------|
||o--------------------|-------------------|
||--12-9---12-9---12-9-|---11-9---11-9---7-|
||-------9------9------|-9------9------9---|
||o--------------------|-------------------|
||---------------------|-------------------|


  E E E E E E E E   E E E E E E E E   3x
|-----------------|-------------------||
|-----------------|------------------o||
|-5---7-5---7-5---|-9-7---9-7---9-7---||
|---5-----5-----5-|-----7-----7-------||
|-----------------|------------------o||
|-----------------|-------------------||


                                              ~~~~~~~~~~~~~~~
   E E E  E E E  E E   E  E E E  E E E E      W          +W
|--------------------|-------------------|---------|------------|
|--------------------|-------------------|---------|------------|
|-12-9---12-9---12-9-|---11-9---11-9---7-|---------|------------|
|------9------9------|-9------9------9---|----9----|-----(9)----|
|--------------------|-------------------|---------|------------|
|--------------------|-------------------|---------|------------|


  W     W     W     W     W     W     W     H
|----|-----|-----|-----|-----|-----|-----|---------|
|----|-----|-----|-----|-----|-----|-----|---------|
|----|-----|-----|-----|-----|-----|-----|---------|
|----|-----|-----|-----|-----|-----|-----|---------|
|----|-----|-----|-----|-----|-----|-----|-------X-|
|----|-----|-----|-----|-----|-----|-----|-------X-|
                                              E  ^
                                                pick scrape


  PM|   PM    PM|       PM  PM|        PM|   PM    PM|       PM  PM  PM
  E E E E E E E E   E E E E E E E  E   E E E E E E E E   E E E E E E E E
|-----------------|------------------|-----------------|-----------------|
|-----------------|------------------|-----------------|-----------------|
|-----------------|------------------|-----------------|-----------------|
|-----------------|------------------|-----------------|---5---4---------|
|-----7---5-7-----|-5-7---5-----7\-5-|-----7---5-7-----|-5---------7---5-|
|-0-0---0-----0-0-|-----0-3-0-0-5--3-|-0-0---0-----0-0-|-----0---0---0---|


                                                         H.=H
  PM|   PM    PM|       PM  PM|        PM|   PM    PM----|
  E E E E E E E E   E E E E E E E  E   E E E E E E E E   E E E E +H
|-----------------|------------------|-----------------|----------------|
|-----------------|------------------|-----------------|----------------|
|-----------------|------------------|-----------------|----------------|
|-----------------|-
-----------------|-----------------|----------------|
|-----7---5-7-----|-5-7---5-----7\-5-|-----7---5-7-----|---5-7-9-(9)----|
|-0-0---0-----0-0-|-----0-3-0-0-5--3-|-0-0---0-----0-0-|-0-----7-(7)----|


    W     W     W     W       W     W     W    E E H.
||-----|-----|-----|------||-----|-----|-----|-----------||
||o----|-----|-----|-----o||-----|-----|-----|-----------||
||-----|-----|-----|------||-----|-----|-----|-----------||
||-----|-----|-----|------||-----|-----|-----|-----------||
||o-2--|--2--|--7--|--7--o||--2--|--2--|--7--|-7-5-7-----||
||--0--|--0--|--5--|--5---||--0--|--0--|--5--|-5-3-5-----||

Solo (that I can't play); INSERT INTO yabbse_messages (ID_MSG, ID_TOPIC, ID_MEMBER, subject, posterName, posterEmail, posterTime, posterIP, smiliesEnabled, modifiedTime, modifiedName, body, icon, attachmentSize, attachmentFilename) VALUES and riffs to the end can be found above.


Duration Legend
---------------
W - whole; H - half; Q - quarter; E - 8th; S - 16th; T - 32nd; X - 64th; a - acciaccatura
+ - note tied to previous; . - note dotted

Tablature Legend
----------------
 /\  - slide into or out of (from/to "nowhere")
 ~   - vibrato

Misc Legend
-----------
 |  - bar
||  - double bar
||o - repeat start
o|| - repeat end

Offline shinmai

  • Newbie
  • *
  • Posts: 21
  • Karma: 2
  • Gender: Male
  • shinmai/SubEXiT
    • shinmai.tk
Re:Sidstyler intro
« Reply #6 on: October 25, 2003, 10:13:44 am »
Nice!
SubEXiT --- the Only way Out!

Offline alba

  • Newbie
  • *
  • Posts: 34
  • Karma: 2
  • Gender: Male
  • *fap fap fap*
    • fnatic team
Re:Sidstyler intro
« Reply #7 on: February 03, 2004, 11:25:07 pm »
exellent!
l33t.

Offline Skvate

  • Jr. Member
  • **
  • Posts: 166
  • Karma: 13
  • Gender: Male
  • Mediocre
Re:Sidstyler intro
« Reply #8 on: February 27, 2004, 02:33:34 am »
i have started tabbing the solo... im only missing the last riff of it now...i think most of the notes are correct...the durations is not 100%.

   ~~~~~~~~~~~~~
   W        +W          S  S  S  S S  S   H   Q      H  S  S  S  S S  S   H
|--------------------------------------------14b15r=12------------------/10--|
|---------------------------------------/12----------------------------------|
|-/9--------(9)--------12-12-12-11-9-------------------12-12-12-11-9---------|
|------------------------------------12------------------------------12------|
|----------------------------------------------------------------------------|
|----------------------------------------------------------------------------|


   S  S  E   H     S  S  S  S S  S   H   S  S  S  S S  S   H   Q  S  Q  +H        H  +E
|--------------------------------------------------------------------------------------------|
|-12-10----/10---------------------/12-------------------/12--10----10-(10)b11r==10-(10)/----|
|-------12--------12-12-12-11-9---------12-12-12-11-9------------12--------------------------|
|-------------------------------12--------------------12-------------------------------------|
|--------------------------------------------------------------------------------------------|
|--------------------------------------------------------------------------------------------|


   S  S  S  S  S  S  S  S  S  S  S  S  S  S  S  S  S  S  S  E   S  S  S  S  S  Q      E
|-15-14-15-12-15-14-15-12-15-14-15-12-15-14-15-12-15-14-12---------------------------------|
|----------------------------------------------------------15------------------------------|
|-----------------------------------------------------------------------------11b12r=======|
|-----------------------------------------------------------------14----12-14--------14----|
|--------------------------------------------------------------12----12--------------------|
|------------------------------------------------------------------------------------------|


   S  S  S  S  S  S  S  S  S  S  S  S  S  S  S  S  S  S  S  Q   E  S  T  T  T  T  X  X  T  T  T  T  T  Q
|-15-14-15-12-15-14-15-12-15-14-15-12-15-14-15-12-15-17-17s19--21-21-19----------------------------------|
|-----------------------------------------------------------------------22-21-19-------------------------|
|--------------------------------------------------------------------------------21-21-19----------------|
|-----------------------------------------------------------------------------------------22-21-19-------|
|--------------------------------------------------------------------------------------------------22-19-|
|--------------------------------------------------------------------------------------------------------|


  S S  S  E     S  S S  S S  S S S S S S  S S S S S  Q
|---------------------------------------------------------|
|---------------------------------------------------------|
|-9-9-11-11b12r=9----9------------------------------------|
|-----------------12---12-9-12-9-8-9-8-7----7-8-7-8-/9----|
|----------------------------------------10---------------|
|---------------------------------------------------------|
Lifeless I sail through these ironic fashions, dressed in the flesh of the jokers passions. On the uttermost brink of madness I stroll, and the rise of insanity as my most precious goal. Tricking the trail of my long lost obscurity, I gather me inside the artifice of eternity....

Offline Spunky

  • Sr. Member
  • ****
  • Posts: 1917
  • Karma: 71
  • Gender: Male
  • Location: Gaming Discussion
Re:Sidstyler intro
« Reply #9 on: February 27, 2004, 12:16:06 pm »
Any...bass....tabs....anyone?  ;D
Current Games: Gears of War 2, Left 4 Dead, Rockband 2, Red Alert 3 (PC)[/center]

Offline Skvate

  • Jr. Member
  • **
  • Posts: 166
  • Karma: 13
  • Gender: Male
  • Mediocre
Re:Sidstyler intro
« Reply #10 on: February 27, 2004, 03:19:55 pm »
don't have a bass guitar. Try it yourself maybe?
Lifeless I sail through these ironic fashions, dressed in the flesh of the jokers passions. On the uttermost brink of madness I stroll, and the rise of insanity as my most precious goal. Tricking the trail of my long lost obscurity, I gather me inside the artifice of eternity....

Offline Spunky

  • Sr. Member
  • ****
  • Posts: 1917
  • Karma: 71
  • Gender: Male
  • Location: Gaming Discussion
Re:Sidstyler intro
« Reply #11 on: February 28, 2004, 02:37:25 pm »
Ive only had it 2 months. I don't even know what string is what  ;D
Current Games: Gears of War 2, Left 4 Dead, Rockband 2, Red Alert 3 (PC)[/center]

Offline Skvate

  • Jr. Member
  • **
  • Posts: 166
  • Karma: 13
  • Gender: Male
  • Mediocre
Re:Sidstyler intro
« Reply #12 on: February 28, 2004, 05:58:35 pm »
My guess is "EADG" (from the top)...think thats the standard tuning on bass guitars. What you can try to do, is play the same as the rythm guitar does. The standard bass tuning, is one octave below the standard guitar tuning....so it should be correct most of the time....when you play, you play the same as the rythm guitar...just one octave lower....then you can try to listen for bass fills and other variatons, and try to play the same thing. Try practising scales and stuff....check out some tutorials/lesson tabs....just goooogle it :)
Lifeless I sail through these ironic fashions, dressed in the flesh of the jokers passions. On the uttermost brink of madness I stroll, and the rise of insanity as my most precious goal. Tricking the trail of my long lost obscurity, I gather me inside the artifice of eternity....

Offline Spunky

  • Sr. Member
  • ****
  • Posts: 1917
  • Karma: 71
  • Gender: Male
  • Location: Gaming Discussion
Re:Sidstyler intro
« Reply #13 on: February 29, 2004, 12:08:23 pm »
Danke danke!  ;D
Current Games: Gears of War 2, Left 4 Dead, Rockband 2, Red Alert 3 (PC)[/center]

Offline NIQ

  • Newbie
  • *
  • Posts: 10
  • Karma: 1
  • I'm a llama!
Re:Sidstyler intro
« Reply #14 on: April 21, 2004, 10:29:31 pm »
i'm starting to tab this out onto guitarpro using things from this post as well as adding a drum part, i think Poisoned will be doing the bass part for it

so maybe soon we can post it up here :)

gonna have to figure out that solo though